PrimaNota.ru - самый крупный в мире бесплатный архив песенных текстов, аккордов, табулатур и нот


Jamiroquai - Slipinnslidin - текст песни, бас-таба, видео

Регистрация Запомнить меня
Войти через:  Facebook Google Twitter Vk Yandex Mail.ru

Jamiroquai - Slipinnslidin - текст песни, бас-таба, видео

Печатать
Просмотров: 155
Hi. Nice simple swingin tune by jamiroquai. rythmacly this song is simple
but, what out for some ghost notes and the rythem of the bass. NOTE: this
song was ment to be played on a 5 STRING bass listen for the octive change
on the main riff. 
Comment, rate. Enjoy ;) AJ 

Normal Tuning 
G|
D|
A|
E|

Intro
|------------------------------|
|----------10----------------8-|
|-----8-11----11---------6h8---| x4
|-6h8---------------6-6--------|

|---------|
|---------|
|-x-3-4-5-|
|---------|

Main Riff
|---------------------------------------------------------------------|
|---------------------------------------------------------------------|
|-6-6-6-6-6-6-6-6-6-6-6-6-------------------------x-4-4-4--4-2-1--3-4-| x8
|-------------------------5-5-5-5-4-4-4-4-4-4-4-4---------------------|

Chorus
|-----------------------|----------|-----8-----6-----5-----3-|
|-----------------------|----------|-------------------------|
|---4--6--8-4/6--6--6-6-|----------|-0h6---0h4---0h3---0h1---|
|-6---------------------|-2--4-5-6-|-------------------------|
                                     T   P T   P T   P T   P 
|----------|---------------------|----------|
|----------|---------------------|----------|
|----------|-4--6--8-4/6--6--6-6-|----------|
|-2--4-5-6-|---------------------|-2--4-5-6-|

Main riff
|---------------------------------------------------------------------|
|---------------------------------------------------------------------|
|-6-6-6-6-6-6-6-6-6-6-6-6-------------------------x-4-4-4--4-2-1--3-4-| x6
|-------------------------5-5-5-5-4-4-4-4-4-4-4-4---------------------|

2nd Chorus
|-----------------------|----------|-----8-----6-----5-----3-|
|-----------------------|----------|-------------------------|
|---4--6--8-4/6--6--6-6-|----------|-0h6---0h4---0h3---0h1---|
|-6---------------------|-2--4-5-6-|-------------------------|
                                     T   P T   P T   P T   P 
|----------|---------------------|----------|
|----------|---------------------|----------|
|----------|-4--6--8-4/6--6--6-6-|----------|
|-2--4-5-6-|---------------------|-2--4-5-6-|

|-----8-----6-----5-----3-|----------|
|-------------------------|----------|
|-0h6---0h4---0h3---0h1---|----------|
|-------------------------|-2--4-5-6-|

Outro                                <       Fill for outro            >
|----------------------|            |-------------| |-13h15-13---------|
|----------------------| repeat     |-------6-----| |----------x-15-13-|
|----------------------| till       |-0h6h8---8-6-| |------------------|
|-3-3-3-3-3--4-4-4-x-6-| end        |-------------| |------------------|

And thats it. Comment, Rate. enjoy ;) AJ
Добавлено: 10.04.2012
Другие материалы по этой песне:
  • Аккорды и текст

Страница создана 10.04.2012
http://primanota.ru/jamiroquai/slipinnslidin-chords.htm
Привет, Гость.
Предлагаем пройти революционный курс по гитаре.
Подарок от PrimaNota.Ru, забирай!