PrimaNota.ru - самый крупный в мире бесплатный архив песенных текстов, аккордов, табулатур и нот


Jamiroquai - Shes A Fast Persuader - бас-таба, видео

Регистрация Запомнить меня
Войти через:  Facebook Google Twitter Vk Yandex Mail.ru

Jamiroquai - Shes A Fast Persuader - бас-таба, видео

Печатать
Просмотров: 138
Авторы: Jason Kay, Derrick McKenzie, Matt Johnson, Rob Harris, Sola Akingbola, Paul Turner

Hi. This is probably MY favorite song on rock dust light star. Aso one of
the hardist on bass. so when i tryed to learn it, i found that there was no
tabs :( This is my attempt on it. Took me a few hours since the bass is 
sooo frikin tricky. Theres Loads of verations and little fills that are 
extremely hard to hear.
Comment, rate, ENJOY ;) AJ 

Note!... This Song is probably played on a 5 string bass but i tab it 
         to a 4 string, so you will hear the different octives on my 
         tab 

Also!... There are loads of muted notes i didnt add because it changes on
         bar even on the repeated ones. so just do what i do and INPROV :D
         AJ ;) 

Normal tuning
G|
D|
A|
E|

Riff A

|-6-//-8---|-11h13p11---------------------|-6-//-8---|
|----------|----------13------------------|----------|
|---4-//-6-|-------------11---9h11p9------|---4-//-6-|
|----------|-------------------------11-4-|----------|

|-6-//-8---|-----------|
|----------|-----------|
|---4-//-6-|--4--3--4--|
|----------|-----------|
              T  T  T 

|-6-//-8---|-------------|-11h13p11---------------------|
|----------|-------------|----------13------------------|
|---4-//-6-|-x-x-4--3--4-|-------------11---9h11p9------|
|----------|-------------|-------------------------11-4-|
             T T T  T  T

|-6-//-8---|-------------|-11h13p11--------------------|
|----------|-------------|----------13-----------------|
|---4-//-6-|-x-x-4--3--4-|-------------11-9//11--------|
|----------|-------------|----------------------9-9h11-|
             T T T  T  T

|-6-//-8---|-------------|
|----------|-------------|
|---4-//-6-|-x-x-4--3--4-|
|----------|-------------|
             T T T  T  T

Chorus A

|---8----8-8---7-7---6------------9-----11------8------11-13-11-|
|-------------------------------------------------x-13----------|
|-6----6-----5-----4----2--4----7----9-----x-6------------------|
|---------------------------------------------------------------|

|------------------8----8-8----7-7---6-----------9----11-------|
|-11-11-11-11-11-----------------------------------------------|
|----------------6----6------5-----4---2--4--x-7---x-9-----x-6-|
|--------------------------------------------------------------|

|-8-6----------------|
|-----8--------------|
|-------6--6-6-x-/-8-|
|--------------------|

|---8-------8---6-------------9---11----8--------6-|
|----------------------------------------------8---|
|-6---6--6----4---4--2--4--7----9-----6---6--6-----|
|--------------------------------------------------|

|------------------8----8-8---7-7---6----9-----|
|-11-11-11-11-11-----------------------------4-|
|----------------6----6-----5-----4----7-------|
|------------------------------------------2---|

Riff B

|-6-//-8---|-----------|
|----------|-----------|
|---4-//-6-|--4--3--4--|
|----------|-----------|
              T  T  T

|-11h13p11---------------------|-6-//-8---|
|----------13------------------|----------|
|-------------11---9h11p9------|---4-//-6-|
|-------------------------11-4-|----------|
              T  T  T 

|-----------|
|-----------|
|--4--3--4--|
|-----------|
   T  T  T

|-----------|-6-//-8---|
|-----------|----------|
|--4--3--4--|---4-//-6-|
|-----------|----------|
   T  T  T

|-------------|-11h13p11--------------------|-------------|
|-------------|----------13-----------------|-------------|
|-x-x-4--3--4-|-------------11-9//11--------|-x-x-4--3--4-|
|-------------|----------------------9-9h11-|-------------|
  T T T  T  T                                 T T T  T  T 

|-6-//-8---|-------------|-11h13p11--------------------|
|----------|-------------|----------13-----------------|
|---4-//-6-|-x-x-4--3--4-|-------------11-9//11--------|
|----------|-------------|----------------------9-9h11-|
             T T T  T  T 

|-----------|-6-//-8---|
|-----------|----------|
|--4--3--4--|---4-//-6-|
|-----------|----------|
   T  T  T

|-------------|-11h13p11--------------------|-6-//-8---|
|-------------|----------13-----------------|----------|
|-x-x-4--3--4-|-------------11-9//11--------|---4-//-6-|
|-------------|----------------------9-9h11-|----------|
  T T T  T  T                                 

Chorus B

|---8----8-8---7-7---6------------9-----11------8------11-13-11-|
|-------------------------------------------------x-13----------|
|-6----6-----5-----4----2--4----7----9-----x-6------------------|
|---------------------------------------------------------------|

|------------------8----8-8----7-7---6-----------9----11-------|
|-11-11-11-11-11-----------------------------------------------|
|----------------6----6------5-----4---2--4--x-7---x-9-----x-6-|
|--------------------------------------------------------------|

|-8-6----------------|
|-----8--------------|
|-------6--6-6-x-/-8-|
|--------------------|

|---8-------8---6-------------9---11----8--------6-|
|----------------------------------------------8---|
|-6---6--6----4---4--2--4--7----9-----6---6--6-----|
|--------------------------------------------------|

|------------------8----8-8---7-7---6----9-----|
|-11-11-11-11-11-----------------------------4-|
|----------------6----6-----5-----4----7-------|
|------------------------------------------2---|

Saxaphone solo 

|-6-//-8---|-11h13p11---------------------|-6-//-8---|
|----------|----------13------------------|----------|
|---4-//-6-|-------------11---9h11p9------|---4-//-6-|
|----------|-------------------------11-4-|----------|

|-11h13p11---------------------|---------|-6-//-8---|
|----------13------------------|---------|----------|
|-------------11---9h11p9------|-4--3--4-|---4-//-6-|
|-------------------------11-4-|---------|----------|
                                 T  T  T 

|-------------|-11h13p11--------------------|-------------|
|-------------|----------13-----------------|-------------|
|-x-x-4--3--4-|-------------11-9//11--------|-x-x-4--3--4-|
|-------------|----------------------9-9h11-|-------------|
  T T T  T  T                                 T T T  T  T 

|-6-//-8---|-------------|-11h13p11--------------------|
|----------|-------------|----------13-----------------|
|---4-//-6-|-x-x-4--3--4-|-------------11-9//11--------|
|----------|-------------|----------------------9-9h11-|
             T T T  T  T

|-----------|-6-//-8---|
|-----------|----------|
|--4--3--4--|---4-//-6-|
|-----------|----------|
   T  T  T 

|-------------|-11h13p11--------------------|-------------|
|-------------|----------13-----------------|-------------|
|-x-x-4--3--4-|-------------11-9//11--------|-x-x-4--3--4-|
|-------------|----------------------9-9h11-|-------------|
  T T T  T  T                                 T T T  T  T 

Chorus

|---8----8-8---7-7---6------------9-----11------8-8------11-|
|-----------------------------------------------------------|
|-6----6-----5-----4----2--4----7----9-----x-6------6//9----|
|-----------------------------------------------------------|

|---8----8-8---7-7---6------------9-----11------8-8------11-|
|-----------------------------------------------------------|
|-6----6-----5-----4----2--4----7----9-----x-6------6//9----|
|-----------------------------------------------------------|

|-8-6-----6-4-----------------9------11-11/13-11--13-11-------11----|
|-----8-6-----6-4---------------------------------------13-11----13-|
|-----------------2-2-4-4---7-----9---------------------------------|
|-------------------------------------------------------------------|

|-------------------|
|-13-11-------11----|
|-------13-11----13-|
|-------------------|

|---8-------8---6-------------9---11----8--------6-|
|----------------------------------------------8---|
|-6---6--6----4---4--2--4--7----9-----6---6--6-----|
|--------------------------------------------------|

|---8-------8---6-------------9---11----8--------6-|
|----------------------------------------------8---|
|-6---6--6----4---4--2--4--7----9-----6---6--6-----|
|--------------------------------------------------|

|------------------8----8-8----7-7---6-----------9----11-------|
|-11-11-11-11-11-----------------------------------------------|
|----------------6----6------5-----4---2--4--x-7---x-9-----x-6-|
|--------------------------------------------------------------|

|---8-------8---6-------------9---11----8--------6-|
|----------------------------------------------8---|
|-6---6--6----4---4--2--4--7----9-----6---6--6-----|
|--------------------------------------------------|

|------------------8----8-8---7-7---6----9-----|
|-11-11-11-11-11-----------------------------4-|
|----------------6----6-----5-----4----7-------|
|------------------------------------------2---|

|---8----8-8---7-7---6------------9-----11------8-8------11-|
|-----------------------------------------------------------|
|-6----6-----5-----4----2--4----7----9-----x-6------6//9----|
|-----------------------------------------------------------|

|---8----8-8---7-7---6------------9-----11------8-8------11-|
|-----------------------------------------------------------|
|-6----6-----5-----4----2--4----7----9-----x-6------6//9----|
|-----------------------------------------------------------|

Outro

|---------------|-------|----------------|---11-9-8----|
|---------4-2---|-------|-7--7-5-6-7-----|----------11-|
|---x-2-4-------|-5-6-7-|----------------|-------------|
|-2-----------2-|-------|------------2-2-|-2-----------|

|-------|-------|----------------|-----------|
|-4-2---|-------|-7--7-5-6-7-----|---4-2-1---|
|-------|-5-6-7-|----------------|---------4-|
|-----2-|-------|------------2-2-|-2---------|

|-------|-------|----------------|-----------|
|-4-2---|-------|-7--7-5-6-7-----|---4-2-1---|
|-------|-5-6-7-|----------------|---------4-| repeat till end
|-----2-|-------|------------2-2-|-2---------| with verations

And thats it. please, rate comment :) much love AJ :)
Добавлено: 02.06.2012
Другие материалы по этой песне:

Страница создана 28.02.2012
http://primanota.ru/jamiroquai/shes-a-fast-persuader-chords.htm
Привет, Гость.
Предлагаем пройти революционный курс по гитаре.
Подарок от PrimaNota.Ru, забирай!