PrimaNota.ru - самый крупный в мире бесплатный архив песенных текстов, аккордов, табулатур и нот


Jamiroquai - Falling - бас-таба, видео

Регистрация Запомнить меня
Войти через:  Facebook Google Twitter Vk Yandex Mail.ru

Jamiroquai - Falling - бас-таба, видео

Печатать
Просмотров: 180
Авторы: Jason Kay, Toby Smith

Piano intro (play twice)
G-|----------------------|----------------------|----------------------|------------------3-4|
D-|----------------------|----------------------|----------------------|---------------------|
A-|-3--3---4---5--5---6--|-7--7-----------------|-3--3---4---5--5---6--|-7--7------------1-2-|
E-|----------------------|--------4---5--5---7--|----------------------|--------4---5--5-----|
E|--4---0-8-5-7-5| -> play this the 2nd time
  Verse
G-|----------5----------|---------------------|----|----------5----------|---------------------|
D-|---------------------|---------------------|----|---------------------|---------------------|
A-|-0h3--3-------5-5----|-5-7-----------------|-7x-|-0h3--3-------5-5----|-5-7-----------------|
E-|---------------------|-----0----0-8-5-7-5--|----|---------------------|-----0----0h5-5---2--|

  Chorus
G-|-----------------3---|------2----------5---|---------------------|------------------------------|
D-|------3--------------|---------------------|------3----------2---|------7------7-9-10-9-7-9-7---|
A-|------------1--------|-0------020-3--------|---------------------|------------7--------------7--|
E-|-1-------------------|--------------------3|-1----------0--------|0h5-------------------------8|

G-|-----------------3---|------2----------5---|-----------------9---|--------------------------|
D-|------3--------------|---------------------|------3--------------|--------------------------|
A-|------------1--------|-0------020-3--------|------------7--------|---------0h5---0h5-0h7----|
E-|-1-------------------|--------------------3|-1-------------------|-5---8-----------------8-|

  Verse 2
G-|---------------------|---------------------|
D-|---------------------|---------------------|
A-|---3--3-----0h5-5----|---7-----------------|
E-|---------------------|-----0----0-8-5-7-5--|

G-|----------5----------|---------------------|----|----------5----------|-----------------------|
D-|---------------------|---------------------|----|---------------------|-5-5-------------------|
A-|-0h3--3-------5-5----|-5-7-----------------|-6x-|-0h3--3-------5-5----|----5-5-7-5-------1-2-3|
E-|---------------------|-----0----0-8-5-7-5--|----|---------------------|-----------8--5-------|

  Chorus 2
G-|-----------------3---|------2----------5---|---------------------|---------------------------|
D-|------3--------------|---------------------|------3----------2---|---------------------------|
A-|------------1--------|-0------020-3--------|---------------------|---------0h5-0h5-0h7--5----|
E-|0h1------------------|--------------------3|-1----------0--------|0h5--8------------------8-|

G-|-----------------3---|------2----------5---|-----------------9---|---------------------------|
D-|------3--------------|---------------------|------3--------------|------7------7-9-10-9-7-9-7|
A-|------------1--------|-0------020-3--------|------------7--------|------------7--------------|
E-|-1-------------------|--------------------3|-1-------------------|-5-------------------------|

G-|-----------------3---|------2----------5---|---------------------|---------------------------|
D-|------3--------------|---------------------|------3----------2---|---------------------------|
A-|------------1--------|-0-------02-3--------|---------------------|--------0h5-0h5-0h7--5-----|
E-|-1-------------------|--------------------3|-1----------0------03|0-5--8------------------8-|

G-|-----------------3---|------2----------5---|-----------------9---|---------------------------|
D-|------3--------------|---------------------|------3--------------|------7------7-9-10-9-7-9-7|
A-|------------1--------|-0------020-3--------|------------7--------|------------7--------------|
E-|-1-------------------|-------------------13|1-1------------------|-5-------------------------|

  Outro (twice)
G-|---------------------|---------------------|---------------------|---------------------|
D-|---------------------|---------------------|---------------------|---------------------|
A-|---3--3-----0h5-5----|---7-----------------|-0h3--3-----0h5-5----|---------------------|
E-|---------------------|-----0----0-8-5-7-5--|--------------------0|15-0-13-12--0-8-5-7-5|
Добавлено: 30.07.2012
Другие материалы по этой песне:
  • Аккорды и текст

Страница создана 30.07.2012
http://primanota.ru/jamiroquai/falling-chords.htm
Привет, Гость.
Предлагаем пройти революционный курс по гитаре.
Подарок от PrimaNota.Ru, забирай!