PrimaNota.ru - самый крупный в мире бесплатный архив песенных текстов, аккордов, табулатур и нот


Jamies Elsewhere - Giants Among Common Men - таба, видео

Регистрация Запомнить меня
Войти через:  Facebook Google Twitter Vk Yandex Mail.ru

Jamies Elsewhere - Giants Among Common Men - таба, видео

Печатать
Просмотров: 99
Giants Among Common Men

C#G#C#F#A#D# 

Intro
|-----------------------------|----|------------------|
|-----------------------------|----|------------------|
|-----------------------------|----|------------------|
|-0---------------2-2-2-2-2-2-|----|-8-----5----10----|
|-0--5h0-5h8p5-0--4-4-4-4-4-4-|-x6-|-8-x16-5-x8-10-x8-|
|-0------------0--------------|----|-8-----5----10----|

Break
Both
|------------------------------------------------------------------|
|------------------------------------------------------------------|
|------------------------------------------------------------------|
|-0-0-----------------------------0-0---------0-0--8-7-------------|
|-0-0-7b9-7b9-7b9-7b9-7b9-7b9-7b9-0-0-7b9-7b9-0-0--------8-10-8-5/-|
|-0-0-----------------------------0-0---------0-0------0-----------|

|-------------------------------------------------------|
|-------------------------------------------------------|
|--------------------------------------------------15*/-|
|-0-0-----------------------------0-0---------0-0-------|
|-0-0-7b9-7b9-7b9-7b9-7b9-7b9-7b9-0-0-7b9-7b9-0-0-------|
|-0-0-----------------------------0-0---------0-0-------|

|-------|----------------------------------------|
|-------|----------------------------------------|
|-------|----------------------------------------|
|-------|-----7-10-7-----------------------------|
|-0-x14-|-5-8--------8-5p0--12-12-12-12-10-10-10-|
|-0-----|----------------------------------------|

Chorus
Both
|---------------------------------------|
|---------------------------------------|
|---------------------------------------|
|-0-----8-----3-----10-----8-----10-----|
|-0-x16-8-x16-3-x16-10-x16-8-x16-10-x16-|
|-0-----8-----3-----10-----8-----10-----|

Verse 2
GTR1
|-------|----|------|----|
|-------|----|------|----|
|-14-10-|----|-12-9-|----|
|-------|----|------|----|
|-------|-x8-|------|-x8-| x2
|-------|----|------|----|

|-------8---------------10-8----8-|----|------|
|----10-----------10---------10---|----|------|
|-10------9----10----10-----------|----|-17---|
|---------------------------------|----|---x4-|
|---------------------------------|-x4-|-15---|
|---------------------------------|----|------|

GTR2
|--------------|
|--------------|
|--------------|
|--------------|
|-8-x12-10-x12-| x4
|-8-----10-----|
GTR3
|-------|----|------|----|
|-------|----|------|----|
|-14-10-|----|-12-9-|----|
|-------|----|------|----|
|-------|-x8-|------|-x8-| x2
|-------|----|------|----|

Repeat Chorus
Solo
GTR1
|---------------------------10--8-5--8-6-5----------10-|
|------------5-6-5---5-6-8-----------------8-6-5-------|
|-/7--7-5-7--------7-----------------------------5-----|
|------------------------------------------------------|
|------------------------------------------------------|
|------------------------------------------------------|

|---------8-----------8-------------------8-----------8----7*-|
|-6---5-6---6-5---5-6---6-5-6-5-6-5-6-5-6---6-5---6-5---6-----|
|---5-----------5-------------------------------5-------------|
|-------------------------------------------------------------|
|-------------------------------------------------------------|
|-------------------------------------------------------------|

GTR2
|--------------|--------------------|--------------------|
|--------------|--------------------|--------------------|
|--------------|--------------------|--------------------|
|--------------|-0------0-----------|-3------3-----------|
|-8-x16-10-x12-|-0-0--0-0--0-0--2-0-|-3-3--3-3--3-3--5-3-|
|-8-----10-----|-0-0--0-0--0-0--2-0-|-3-3--3-3--3-3--5-3-|

Break 2
Both
|-----------------------------------------------------------------|
|-----------------------------------------------------------------|
|-----------------------------------------------------------------|
|-0-0-----------------------------0-0---------0-0-8-7-------------|
|-0-0-7b9-7b9-7b9-7b9-7b9-7b9-7b9-0-0-7b9-7b9-0-0-------8-10-8-5/-|
|-0-0-----------------------------0-0---------0-0-----0-----------|

|-------------------------------------------------------|
|-------------------------------------------------------|
|--------------------------------------------------15*/-|
|-0-0-----------------------------0-0---------0-0-------|
|-0-0-7b9-7b9-7b9-7b9-7b9-7b9-7b9-0-0-7b9-7b9-0-0-------|
|-0-0-----------------------------0-0---------0-0-------|

Outro
Both
|--------------------------------------|----|--------------|
|--------------------------------------|----|--------------|
|--------------------------------------|----|--------------|
|-0-----0-0--0----0--3h5p3-0-----------|----|-5--6--10-6-5-|
|-0-----0-0--0----0----------3---------|-x4-|-5--6--10-6-5-|
|-0-3b5-0-0--0-3b-0------------5-6-5-3-|----|-5--6--10-6-5-|
Добавлено: 10.04.2012
Другие материалы по этой песне:

Страница создана 10.04.2012
http://primanota.ru/jamies-elsewhere/giants-among-common-men-chords.htm
Привет, Гость.
Предлагаем пройти революционный курс по гитаре.
Подарок от PrimaNota.Ru, забирай!