PrimaNota.ru - самый крупный в мире бесплатный архив песенных текстов, аккордов, табулатур и нот


Jamie Xx - Stranger In A Room - таба, видео

Регистрация Запомнить меня
Войти через:  Facebook Google Twitter Vk Yandex Mail.ru

Jamie Xx - Stranger In A Room - таба, видео

Печатать
Просмотров: 74
Only the guitar part.

Very simple but sound so good.

I only play on the second string except one note on the first string.


e|--------------------------------------------|
B|--4--3--8--1-----4--6-3--4-8--9-1-----------|
G|--------------------------------------------|
D|--------------------------------------------|

e|--------------------------------------------|
B|--444-444-6-333-333-4-888-888-9-111---------|
G|--------------------------------------------|
D|--------------------------------------------|

e|--------------------------------------------|
B|--4--6-3--4-8--9-1--------------------------|
G|--------------------------------------------|
D|--------------------------------------------|

e|-----------------------------------------------------------|
B|--1-1-4-4-6--8----1-1-4-4-11--6--6/8/6--4--6/8/4-----------|
G|-----------------------------------------------------------|    x2
D|-----------------------------------------------------------|

e|------------------------------------------18---------------------------|
B|--13-13-16-16-18--20----13-13-16-16----18----18/20/16--18/20/16--------|
G|-----------------------------------------------------------------------|    x2
D|-----------------------------------------------------------------------|
Добавлено: 30.11.2015
Другие материалы по этой песне:
  • Аккорды и текст

Страница создана 30.11.2015
http://primanota.ru/jamie-xx/stranger-in-a-room-chords.htm
Привет, Гость.
Предлагаем пройти революционный курс по гитаре.
Подарок от PrimaNota.Ru, забирай!