PrimaNota.ru - самый крупный в мире бесплатный архив песенных текстов, аккордов, табулатур и нот


Jamie Xx - Girl - бас-таба, видео

Регистрация Запомнить меня
Войти через:  Facebook Google Twitter Vk Yandex Mail.ru

Jamie Xx - Girl - бас-таба, видео

Печатать
Просмотров: 57
Уроки эстрадного вокала в Санкт-Петербурге
Авторы: John Robie, Marcin Öz, Sebastian Maschat, Rasmus Hägg, Brian Wilson, Arthur Baker, Erlend Øye, Jamie Smith, Dan Lissvik

-------------------------------------------------------------------------------
                             SONG NAME - Band Name
-------------------------------------------------------------------------------
Tabbed by: MystiaLorelei
Youtube Cover w/ Tab : https://www.youtube.com/watch?v=6ALPCSpc9dM
Tuning: Standard EADG

Main Riff

G|---------------------------------------------------------------------------|
D|-6----------6------------6-----------4----------4----------------4---------|
A|---------------------------------4-6---------------------------------------|
E|---------------------------------------------------------------------------|

G|---------------------------------------------------------------------------|
D|--------------------------------------4-6----------------------------------|
A|-6--6--4-------4----------4------4-6---------------------------------------|
E|---------------------------------------------------------------------------|

Break

G|---------------------------------------------------------------------------|
D|---------------------------------------------------------------------------|
A|------------2--2-2--2---------------4--4-4--4------------------------------|
E|-4----4---4------------0----0---0------------------------------------------|



| /  slide up
| \  slide down
| h  hammer-on
| p  pull-off
| ~  vibrato
| +  harmonic
| x  Mute note
===============================================================================
Добавлено: 30.11.2015
Другие материалы по этой песне:
  • Аккорды и текст

Страница создана 30.11.2015
http://primanota.ru/jamie-xx/girl-chords.htm
Привет, Гость.
Предлагаем пройти революционный курс по гитаре.
Подарок от PrimaNota.Ru, забирай!