PrimaNota.ru - самый крупный в мире бесплатный архив песенных текстов, аккордов, табулатур и нот


Jamie T - Spiders Web - таба, видео

Регистрация Запомнить меня
Войти через:  Facebook Google Twitter Vk Yandex Mail.ru

Jamie T - Spiders Web - таба, видео

Печатать
Просмотров: 153
Уроки эстрадного вокала в Санкт-Петербурге
intro/verse
--------------------------------------------------------------|
----15----12-------15----12-----------------------------------|
----------------------------------14--------------------------|  x 12
-12----12----12-12----12----12-12----16-----------------------|
--------------------------------------------------------------|
--------------------------------------------------------------|


-15-------14-------12-----------------------------------------|
-------------------------12-------15--------------------------|
----12-12----12-12----12----12-12----12-----------------------|
--------------------------------------------------------------|  X 2
--------------------------------------------------------------|
--------------------------------------------------------------|

-----------------------------------------------------------------|
----------------------------------------------------------15-12--|
-14-------14-------14----14-14--14-------12-------11-------------|
----12-12----12-12----12-----------12-12----12-12----12-14-------|
-----------------------------------------------------------------|
-----------------------------------------------------------------|

well my bedroom's watched by an intafada...
--------------------------------------------------------------|
----15----12-------15----12-----------------------------------|
----------------------------------14--------------------------|  x 4
-12----12----12-12----12----12-12----16-----------------------|
--------------------------------------------------------------|
--------------------------------------------------------------|

Chorus

caught in a spiders web,
-15-------14-------12-----------------------------------------|
-------------------------12-------15--------------------------|
----12-12----12-12----12----12-12----12-----------------------|
--------------------------------------------------------------|  X 2
--------------------------------------------------------------|
--------------------------------------------------------------|

-----------------------------------------------------------------|
----------------------------------------------------------15-12--|
-14-------14-------14----14-14--14-------12-------11-------------|
----12-12----12-12----12-----------12-12----12-12----12-14-------|
-----------------------------------------------------------------|
-----------------------------------------------------------------|

2nd verse
--------------------------------------------------------------|
----15----12-------15----12-----------------------------------|
----------------------------------14--------------------------|  x 4
-12----12----12-12----12----12-12----16-----------------------|
--------------------------------------------------------------|
--------------------------------------------------------------|


2nd chorus
-15-------14-------12-----------------------------------------|
-------------------------12-------15--------------------------|
----12-12----12-12----12----12-12----12-----------------------|
--------------------------------------------------------------|  X 2
--------------------------------------------------------------|
--------------------------------------------------------------|

-----------------------------------------------------------------|
----------------------------------------------------------15-12--|
-14-------14-------14----14-14--14-------12-------11-------------|
----12-12----12-12----12-----------12-12----12-12----12-14-------|
-----------------------------------------------------------------|
-----------------------------------------------------------------|


pardon me, but i couldn't be bothered to do the rest, though that's the majority of the 
I don't think anyone would notice.
Bear in mind I did all this by ear and not being pitch perfect I don't expect it to be 
right, but it's close enough
Добавлено: 19.03.2012
Другие материалы по этой песне:
  • Аккорды и текст

Страница создана 19.03.2012
http://primanota.ru/jamie-t/spiders-web-chords.htm
Привет, Гость.
Предлагаем пройти революционный курс по гитаре.
Подарок от PrimaNota.Ru, забирай!