PrimaNota.ru - самый крупный в мире бесплатный архив песенных текстов, аккордов, табулатур и нот


Jamie T - On Holiday - текст песни, таба, видео

Регистрация Запомнить меня
Войти через:  Facebook Google Twitter Vk Yandex Mail.ru

Jamie T - On Holiday - текст песни, таба, видео

Печатать
Просмотров: 157
Уроки эстрадного вокала в Санкт-Петербурге
-------------------------------------------------------------------------------
                             On Holiday - Jamie T
-------------------------------------------------------------------------------
Tabbed by: Danw2789
Twitter: @DanWestHU

Tuning: Standard

This tab contains various bits from the song. It's not exactly a song centred around guitar but it contains
the odd bit that you might benefit from knowing. If you listen along to the song this will all make sense.


Main chords in the verse, not played on guitar is the song but useful to know. 
This is used throughout the song and the chords are Asus2, F#m, Em, D if you wanna play about with it a bit.

* pluck the open note hard for the same effect as in the song


e|---------------------------------------------------------------------------|
B|---------------------------------------------------------------------------|
G|---------------------------------------------------------------------------|
D|---7--4---2--0----7--4--2--0----0*--4--2--0----7--4--2--0------------------|
A|---------------------------------------------------------------------------|
E|---------------------------------------------------------------------------|

Chorus (on clean guitar)- note that the pullofs are quite quick and quite quiet on the second part of the
chorus

   "She's away,            get away get away on a holiday"...
 
e|---------------------------------------------------------------------------|
B|---------------------------------------------------------------------------|
G|--7-7--9-9--11-11--12-12---11-11-11-9-9-9-9h11p9-7-7-7-7-7-7-7-6-7-7-7-7-7-|
D|---------------------------------------------------------------------------|
A|---------------------------------------------------------------------------|
E|---------------------------------------------------------------------------|

e|---------------------------------------------------------------------------|
B|---------------------------------------------------------------------------|
G|-7-7-6-----7-7--9-9--11-11--12-12--14-14-14-14-14-14-14p12p11-12p11p9-9-9--|
D|---------------------------------------------------------------------------|
A|---------------------------------------------------------------------------|
E|---------------------------------------------------------------------------|

e|---------------------------------------------------------------------------|
B|---------------------------------------------------------------------------|
G|-9/11\9-7-7-7-6-6-6-6-7----------------------------------------------------|
D|---------------------------------------------------------------------------|
A|---------------------------------------------------------------------------|
E|---------------------------------------------------------------------------|

After the first chorus there is some quite guitar in the background throughout the following verse
that is simply one chord played over and over gradually increasing in volume as the song's power increases.
It's simply:

    "No cornerstone turned over"...
e|---------------------------------------------------------------------------|
B|---10---10---10---10---10---10---------------------------------------------|
G|---7----7----7----7----7----7----------------------------------------------|
D|---0----0----0----0----0----0----------------------------------------------|
A|---------------------------------------------------------------------------|
E|---------------------------------------------------------------------------|

Enjoy. If anyone would like to contact me, best way is through my twitter @DanWestHU
Let me know if you manage to work out the bass for this, especially the intro, then I will add it to this tab


************************************

| /   slide up
| \   slide down
| h   hammer-on
| p   pull-off
| ~   vibrato
| +   harmonic
| x   Mute note
| b   Bend
| pb  Pre-bend
| br  Bend release
| pbr Pre-bend release
| brb Bend release bend

************************************
Добавлено: 20.10.2015
Другие материалы по этой песне:
  • Аккорды и текст

Страница создана 09.07.2012
http://primanota.ru/jamie-t/on-holiday-chords.htm
Привет, Гость.
Предлагаем пройти революционный курс по гитаре.
Подарок от PrimaNota.Ru, забирай!