PrimaNota.ru - самый крупный в мире бесплатный архив песенных текстов, аккордов, табулатур и нот


Jamie T - Jenny Can Rely On Me - аккорды и текст, видео

Регистрация Запомнить меня
Войти через:  Facebook Google Twitter Vk Yandex Mail.ru

Jamie T - Jenny Can Rely On Me - аккорды и текст, видео

Печатать
Просмотров: 100
Jenny Can Rely On Me
Jamie T
-------------------------------------------------------------------------------
                             Jenny Can Rely On Me - Jamie T
-------------------------------------------------------------------------------
Tabbed by: Danw2789
Twitter: @DanWestHU

Tuning: Standard

Intro/Riff

e|---7/10----10/12/14---10/12/15-14-15-14-15p14-12\10-7--------7/10---7/10/15|
B|---------------------------------------------------------------------------|
G|---------------------------------------------------------------------------|
D|---------------------------------------------------------------------------|
A|---------------------------------------------------------------------------|
E|---------------------------------------------------------------------------|

e|-10/12-15-14-15-14h15p14\12\10\7----5--------------------------------------|
B|---------------------------------------------------------------------------|
G|---------------------------------------------------------------------------|
D|---------------------------------------------------------------------------|
A|---------------------------------------------------------------------------|
E|---------------------------------------------------------------------------|

Verse

e|---------------------------------------------------------------------------|
B|---------------------------------------------------------------------------|
G|------7-------------------------------7------------------------------------|
D|------7-------------------------------7------------------------------------|
A|------5-5-5-5-5-5-5-------------------5-5-5-5-5-5-5------------------------|
E|--------------------2-2-2-3-3-3-2-------------------2-2-2-3-3-3-2----------|


There's another little riff in there at 1:04


e|---------------------------------------------------------------------------|
B|---------------------------------------------------------------------------|
G|---------------------------------------------------------------------------|
D|------7-7-7-7--4-4-4-7-7-7-7--4-4-4-7-7-7-7-4-2-0-0------------------------|
A|---------------------------------------------------------------------------|
E|---------------------------------------------------------------------------|


Chrous- the chords are: Bm, D, Bm, D, Bm, D, Em, Em

ie.

Bm      D               Bm         D             Bm         D                     Em      Em
     I cried with Jenny       When I was unhappy    Now the table's turned I said Jenny, Jenny can rely on me

I think they're played as the bar chords below, or could be power chords
 
     Bm         D        Em
e|----2---------5--------7---------------------------------------------------|
B|----3---------7--------8---------------------------------------------------|
G|----4---------7--------9---------------------------------------------------|
D|----4---------7--------9---------------------------------------------------|
A|----2---------5--------7---------------------------------------------------|
E|----2---------5--------7---------------------------------------------------|

After the chorus there's another little riff

e|---------------------------------------------------------------------------|
B|---------------------------------------------------------------------------|
G|---------------------------------------------------------------------------|
D|---777-4-2-0-0-------------------------------------------------------------|
A|---------------------------------------------------------------------------|
E|---------------------------------------------------------------------------|

After the chorus after that comes the solo- this part is repeated til the end of the solo

e|---2--2--2-2--2--2--2-2--2--2--2--2-2--------------------------------------|
B|---3--3--3-3--3--3--3-3--1--1--1--1-1--------------------------------------|
G|---2--2--2-2--2--2--2-2--2--2--2--2-2-----0-----7---2-4-5---9-7-4--4h5p4-0-|
D|---------------------------------------------------------------------------|
A|---------------------------------------------------------------------------|
E|---------------------------------------------------------------------------|

e|---------------------------------------------------------------------------|
B|---------------------------------------------------------------------------|
G|--0--4-2-4p2--0--0---0----------0---0-7---2-4-5---9-7-4--4h5p4-0--0--4-2---|
D|-------------------4-------------------------------------------------------|
A|---------------------------------------------------------------------------|
E|---------------------------------------------------------------------------|


e|---------------------------------------------------------------------------|
B|---------------------------------------------------------------------------|
G|-2h4p2-0--0--4--4-0--------------------------------------------------------|
D|---------------------------------------------------------------------------|
A|---------------------------------------------------------------------------|
E|---------------------------------------------------------------------------|
 
After this point, a second guitar repeats the following 
(note that these are 15's and 12's not 1's 5's or 2's. Fyi there are 32 15's, but listen to the song to
 get an idea of how this is played)

e|-1515151515151515151515151515151515151515151515151515151515151515-12-------|
B|---------------------------------------------------------------------------|
G|---------------------------------------------------------------------------|
D|---------------------------------------------------------------------------|
A|---------------------------------------------------------------------------|
E|---------------------------------------------------------------------------|

Meanwhile another piece of guitar overlays those last two bits with:

e|---------------------------------------------------------------------------|
B|---------------------------------------------------------------------------|
G|----4-------4---5-----4-------4-------4---2------0-------------------------|
D|---------------------------------------------------------------------------|
A|---------------------------------------------------------------------------|
E|---------------------------------------------------------------------------|

Finally the other guitar pieces stop and the song ends with a few chords. They are:

      E     E7         D
e|----7------7---------5--------------------------------------------------------|
B|----9------9---------7--------------------------------------------------------|
G|----9------7---------7--------------------------------------------------------|
D|----9------9---------7--------------------------------------------------------|
A|----7------7---------5--------------------------------------------------------|
E|----7------7---------5--------------------------------------------------------|


************************************

| /   slide up
| \   slide down
| h   hammer-on
| p   pull-off
| ~   vibrato
| +   harmonic
| x   Mute note
| b   Bend
| pb  Pre-bend
| br  Bend release
| pbr Pre-bend release
| brb Bend release bend

************************************
Добавлено: 20.10.2015
Другие материалы по этой песне:
  • Аккорды и текст

Страница создана 20.10.2015
http://primanota.ru/jamie-t/jenny-can-rely-on-me-chords.htm
Привет, Гость.
Предлагаем пройти революционный курс по гитаре.
Подарок от PrimaNota.Ru, забирай!