PrimaNota.ru - самый крупный в мире бесплатный архив песенных текстов, аккордов, табулатур и нот


Jamie T - Ike And Tina - текст песни, таба, бас-таба, видео

Регистрация Запомнить меня
Войти через:  Facebook Google Twitter Vk Yandex Mail.ru

Jamie T - Ike And Tina - текст песни, таба, бас-таба, видео

Печатать
Просмотров: 250
Авторы музыки: Jamie T
Авторы текста: Jamie T
-------------------------------------------------------------------------------
                             Ike and Tina - Jamie T
-------------------------------------------------------------------------------
Tabbed by: Danw2789

Tuning: Standard

This is the tab for the guitar in Ike and Tina, its pretty easy, basically power chords. You only need to 
listen to the song to understand the timing 


Intro
     F       C      G
e|---------------------------------------------------------------------------|
B|-----------13-----8-----------------------------------------------------------|
G|---10------12-----7-------------------------------------------------------------|
D|---10------10-----5-------------------------------------------------------------|
A|---8------------------------------------------------------------------------|
E|---------------------------------------------------------------------------|



The chords throughout are F G Am, F Em C

but are best played like this:

       F         G      Am                     F        Em   C
e|-------------------------------------------------------------------|
B|---------------8-8-8/10-10-10-10-10-10-10--------------------------|
G|-----10-10-10--7-7-7/9--9--9--9--9--9--9----10-10-10\9-9-9\5-------|
D|-----10-10-10--5-5-5/7--7--7--7--7--7--7----10-10-10\9-9-9\5-------|
A|-----8--8--8---------------------------------8--8--8\7-7-7\3-------|
E|-------------------------------------------------------------------|

F              G                           Am
If you smile I swear girl I'll dance these tiles
I'll give you everything that I got

F                        Em                      C
Saves on a sovereign and ah well fuck it you can have the whole lot
I'm only like joking

    F                     G                Am
I'm much better off win a gamble slot jackpot
And dance with the devil on Friday

F                          Em
Max says beans are like the touch of god
    C
Why not, I haven't got grief til Monday

************************************

| /   slide up
| \   slide down

************************************
Добавлено: 20.10.2015
Другие материалы по этой песне:
  • Аккорды и текст

Страница создана 30.03.2012
http://primanota.ru/jamie-t/ike-and-tina-chords.htm
Привет, Гость.
Предлагаем пройти революционный курс по гитаре.
Подарок от PrimaNota.Ru, забирай!