PrimaNota.ru - самый крупный в мире бесплатный архив песенных текстов, аккордов, табулатур и нот


Jamie T - Dry Off Your Cheeks - текст песни, таба, видео

Регистрация Запомнить меня
Войти через:  Facebook Google Twitter Vk Yandex Mail.ru

Jamie T - Dry Off Your Cheeks - текст песни, таба, видео

Печатать
Просмотров: 133
Уроки эстрадного вокала в Санкт-Петербурге
Авторы музыки: Jamie T
Авторы текста: Jamie T
-------------------------------------------------------------------------------
                             Dry Off Your Cheeks - Jamie T
-------------------------------------------------------------------------------
Tabbed by:Danw2789
Twitter: @DanWestHU

Tuning: Standard

Chords are: D C#m A

These are the stabby ones you hear part way through the song
   
         D       C#m        A
e|-------5--------4--------0-------------------------------------------------|
B|-------7--------5--------2-------------------------------------------------|
G|-------7--------6--------2-------------------------------------------------|
D|-------7--------6--------2-------------------------------------------------|
A|-------5--------4--------0-------------------------------------------------|
E|-------5--------4--------0-------------------------------------------------|

Bass part is:

e|---------------------------------------------------------------------------|
B|---------------------------------------------------------------------------|
G|---------------------------------------------------------------------------|
D|---------------------------------------------------------------------------|
A|---------------------------------------------------------------------------|
E|-------10-10-10-10-10-10-10-10-10-10-10-10-10-10-10-10-9-9-9-9-9-9-9-9-7-7-|

e|---------------------------------------------------------------------------|
B|---------------------------------------------------------------------------|
G|---------------------------------------------------------------------------|
D|---------------------------------------------------------------------------|
A|---------------------------------------------------------------------------|
E|--7-7-7-7-9-9--------------------------------------------------------------|

Around 1:00 there's this which repeats a few times:

e|---------------------------------------------------------------------------|
B|---------------------------------------------------------------------------|
G|---------------------------------------------------------------------------|
D|----0---4---2---5----------------------------------------------------------|
A|---------------------------------------------------------------------------|
E|---------------------------------------------------------------------------|

There's another little riff that is played a few times in the song

e|---------------------------------------------------------------------------|
B|---------------------------------------------------------------------------|
G|---------------------------------------------------------------------------|
D|-----444-222-4-0------444-222-4-0------444-222-4-0-----0-00-4-44-2-22-0----|
A|-----------------2-0--------------2-0--------------2-0---------------------|
E|---------------------------------------------------------------------------|

And another just before 2:00 (note that the frets are 14, 11, 9 and 7)

e|---------------------------------------------------------------------------|
B|---------------------------------------------------------------------------|
G|--14-11-9-77--14-11-9-77--14-11-9-77--9-11-9-77----14-11-9-77--14-11-9-77--|
D|---------------------------------------------------------------------------|
A|---------------------------------------------------------------------------|
E|---------------------------------------------------------------------------|

e|---------------------------------------------------------------------------|
B|---------------------------------------------------------------------------|
G|-14-11-9-77--7-777-7-7-9-11-9----------------------------------------------|
D|---------------------------------------------------------------------------|
A|---------------------------------------------------------------------------|
E|---------------------------------------------------------------------------|


 Finally the song ends with the chords D and C#m played as shown previously (bar chords)
Добавлено: 20.10.2015
Другие материалы по этой песне:
  • Аккорды и текст

Страница создана 05.03.2012
http://primanota.ru/jamie-t/dry-off-your-cheeks-chords.htm
Привет, Гость.
Предлагаем пройти революционный курс по гитаре.
Подарок от PrimaNota.Ru, забирай!