PrimaNota.ru - самый крупный в мире бесплатный архив песенных текстов, аккордов, табулатур и нот


Jamie Norton - Fine Again - таба, видео

Регистрация Запомнить меня
Войти через:  Facebook Google Twitter Vk Yandex Mail.ru

Jamie Norton - Fine Again - таба, видео

Печатать
Просмотров: 50
-------------------------------------------------------------------------------
                             Fine Again - Jamie Norton
-------------------------------------------------------------------------------

This song was written by me! :) To check the tab accuracy go to 
https://soundcloud.com/jamie-norton-1/fine-again
The tab isn't 100% accurate to the recording, it is just how I play it now instead of
then. It is very similar however and gives a good idea of how it is played in the
recording. On the other hand, the chords are perfect!

Tabbed by: Jamie Norton

Tuning: Standard EADGBe

Section I (INTRO/VERSE)

e|-------x-----0-x---0---x-----0-x-------x-----7-x---4---x-----4-x------x----|
B|-------x-------x-------x-------x---4h5-x-------x-------x-------x---5--x----|
G|----9--x-------x-------x-------x-------x-4-----x-4-----x-4-----x-4-6--x----|
D|-------x-6-----x-6-----x-6-----x-6-----x-------x-------x-------x------x----|
A|-------x-------x-------x-------x---4---x---4---x---4---x---4---x------x----|
E|----0--x---0---x---0---x---0---x-------x-------x-------x-------x---5--x----|

e|-----5-x---5---x-----5-x-------x-----9-x---7---x---9p7---------------------|
B|-------x-------x-------x---7---x-------x-------x-------9p7-----------------|
G|-6-----x-6-----x-6-----x-6/8---x-8-----x-8-----x-8-------------------------|
D|-------x-------x-------x---9---x-------x-------x---------------------------|
A|-------x-------x-------x-------x-------x-------x---------------------------|
E|---5---x---5---x---5---x---7---x---7---x---7---x---7---7-------------------|

Section II (CHORUS/PRE-CHORUS)

e|--5----x--5--5-x--7----x--7--7-x--5----x--5--5-x--7----x--7--7-------------|
B|--5----x--5--5-x--7----x--7--7-x--5----x--5--5-x--7----x--7--7-------------|
G|--6----x--6--6-x--8----x--8--8-x--6----x--6--6-x--8----x--8--8-------------|
D|--7----x--7--7-x--9----x--9--9-x--7----x--7--7-x--9----x--9--9-------------|
A|-------x-------x-------x-------x-------x-------x-------x-------------------|
E|-5-----x-5-----x-7-----x-7-----x-5-----x-5-----x-7-----x-7-----------------|

Section III (SOLO)

e|-9-12-9-12-14-12-9---------------------------------------------------------|
B|-------------------11/12-10-7/9-9-10-9----------9-10-9----9-9p7-------7/9--|
G|---------------------------------------11-9-11---------11-------9-6-9------|
D|---------------------------------------------------------------------------|
A|---------------------------------------------------------------------------|
E|---------------------------------------------------------------------------|

e|-5-7-9-12-9-----------------9h12-14-12-9h12-14-----------------------------|
B|------------12-10-9-9-10-12------------------------------------------------|
G|---------------------------------------------------------------------------|
D|---------------------------------------------------------------------------|
A|---------------------------------------------------------------------------|
E|---------------------------------------------------------------------------|

Section IV (OUTRO)

e|-----------------------------------10/12-9----------9-12-9-7-9-7-----------|
B|-----7-9-10-12-10-9-7---9/10-12/14---------12-11-12--------------9/10-9-9--|
G|-8/9------------------9----------------------------------------------------|
D|---------------------------------------------------------------------------|
A|---------------------------------------------------------------------------|
E|---------------------------------------------------------------------------|

e|------------------------------------0--------------------------------------|
B|-10-9---------9-10-9----9-9\7-------0--------------------------------------|
G|------11-9-11--------11-------9-6-9-9--------------------------------------|
D|------------------------------------6--------------------------------------|
A|------------------------------------7--------------------------------------|
E|------------------------------------0--------------------------------------|

(CHORD DIAGRAMS)

     E   C#m7   A   B
e|---0----4-----5---7--------------------------------------------------------|
B|---0----5-----5---7--------------------------------------------------------|
G|---9----4-----6---8--------------------------------------------------------|
D|---6----6-----7---9--------------------------------------------------------|
A|---7----4-----0---X--------------------------------------------------------|
E|---0----X-----5---6--------------------------------------------------------|

Section usage:
Where the section number is in brackets on the chords, you use the corresponding section.

e.g. (I) (II) (III) (IV)

Chords:

(I)

E
I don't want to argue,
         C#m7
With the voice inside my head,
         A
But it's keeping me up at night,
     B
So I cannot rest my head,

(I)

  E
I need some reassurance,
       C#m7
I hate being on my own,
     A
Send me some kind of message,
        B
On my - telephone,

(I)

E
Sense is not worth making,
    C#m7
Of that I am quite sure,
A
Nothing makes me happy,
       B
Almost nothing any more,

(II)

A
For you,
B
For you,
A
For you,
 B
For you,

(II)

        A    B
I'll be fine again,
        A    B
I'll be fine again,

(II)

     A
I'll pack up my things,

Continue to sing,
         B
I'll get out of this house,

I won't hang about,
        A    B
I'll be fine again,
        A    B
I'll be fine again,

(I)

        E
It's no fun being crazy,
    C#m7
Without you by my side,
          A
All those times you said you loved it,
           B
I was only in it for the ride,

(I)

         E
This is exactly what you wanted,
  C#m7
A place to call your own,
  A
A place for me and and you to share,
     B
That both of us call home,

(I)

   E
My body is the paper,
    C#m7
And yours a ballpoint pen,
    A
You make me what I want to be,
     B
So I guess I'll wait 'till then,

(III)/(I)

[Solo]

(II)

A
For you,
B
For you,
A
For you,
B
For you,

(II)

        A    B
I'll be fine again,
        A    B
I'll be fine again,

(II)

     A
I'll pack up my things,

Continue to sing,
         B
I'll get out of this house,

I won't hang about,
A
I'll be fine,
B
Fine again,

(IV)/(I)

[Outro]

************************************

| /   slide up
| \   slide down
| h   hammer-on
| p   pull-off
| ~   vibrato
| +   harmonic
| x   Mute note
| b   Bend
| pb  Pre-bend
| br  Bend release
| pbr Pre-bend release
| brb Bend release bend

************************************
Добавлено: 09.03.2016
Вам также может быть интересно:
Другие материалы по этой песне:
  • Аккорды и текст

Страница создана 09.03.2016
http://primanota.ru/jamie-norton/fine-again-chords.htm
Привет, Гость.
Предлагаем пройти революционный курс по гитаре.
Подарок от PrimaNota.Ru, забирай!