PrimaNota.ru - самый крупный в мире бесплатный архив песенных текстов, аккордов, табулатур и нот


Jamestown Revival - Golden Age - таба, видео

Регистрация Запомнить меня
Войти через:  Facebook Google Twitter Vk Yandex Mail.ru

Jamestown Revival - Golden Age - таба, видео

Печатать
Просмотров: 92
Авторы: Zach Chance, Jonathan Clay

-------------------------------------------------------------------------------
                           Golden Age - Jamestown Revival
-------------------------------------------------------------------------------
Tabbed by: Ryan Mocerino
E-mail: nope@nope.com

Version: This live version is best to learn from
--> https://www.youtube.com/watch?feature=player_embedded&v=Q3ibHDaRjgg

Tuning: Standard (EADGBe)

Chords you need...        and ukulele if you are into that kinda thing like me
    C   Gm  Bb  F           
e|--0---3---1---1--|        C   Gm   Bb  F
B|--1---3---3---1--|    A|--3----1---1---0--|
G|--0---3---3---2--|    E|--0----3---1---1--|
D|--2---5---3---3--|    C|--0----2---2---0--|
A|--3---5---1---3--|    G|--0----0---3---2--|
E|------3-------1--|     

I'm using Ableton to slow everything down to get it just right
I usually play things loose, but if you want me to figure out something specific message me
If I have time, I can try to tab out smaller parts if there is enough interest
In particular I really like the intro, so I have tabbed it out below

      C            Gm           Bb           F
-------------------------------------------------------------|
-----1------------------3--------------------------1---1-----|
-------------0----5p3----------3----3-------2----3-3p2-0h2---|
--------0h2-----------------------3----------------3---3-----|
-----3--------------------------1----------------------------|
----------------------3--------------------1---1-------------|
     C          Bb           F                               C
----------------------------------------------------------------|
-----1------1-----------------------1-----1-------1-----1-------|
-----0-----0----3-------------------0h2---3h2-0---0h2---0-------|
--------0h2---------3-------------3------3------3-3---3---------|
------------------1------------------------------------------3--|
-----------------------------1----------------------------------|

Song Format
~~~~~~~~~~~
Verse 1
Pre-Chorus 1
Chorus 1
Verse 2
Pre-Chorus 2
Chorus 2

Intro/Verse 
~~~~~~~~~~~~
|C---|Gm--|Bb--|F---|
|C---|Bb--|F---|F---|

Prechorus --> Chorus
~~~~~~~~~~~~~~~~~~~~
|C---|Gm--|Bb--|C---|
|C---|Bb--|F---|F---|
|C---|C---|Gm--|Gm--|
|Bb--|F---|C---|C---|
|C---|C---|Gm--|Gm--|
|Bb--|F---|C---|C---|   

C              Gm    Bb              F
Good times are over, didn't you know? 
C       Bb             F
Well I heard it on the radio 
C             Gm    Bb            F  
Read in the paper, saw in the news 
C           Bb              F
The golden age is all but through 

C     Gm          Bb         C
My oh my where did Cassidy go 
C             Bb        F
The wild ones all grew old 
C                     Gm
Times they are but changing 
Bb           F             C
Yesterday's dead and gone 
C                        Gm
So play me that old time music 
Bb           F            C
Play that familiar song 

C            Gm     Bb              F
Just a holy roller, gun in his hand 
C         Bb            F
Wondering why nobody understands
C                Gm     Bb              F
I'm missing the music, I'm longing for you... (youth?)
C           Bb            F
Laying the needle to run a groove 

C     Gm          Bb         C
My oh my where did Sundance go 
C             Bb        F
The good ones all grew old 
C                     Gm
Times they are but changing 
Bb           F             C
Yesterday's dead and gone 
C                        Gm
So play me that old time music 
Bb           F            C
Play that familiar song 
C                     Gm
Times they are but changing 
Bb           F             C
Yesterday's dead and gone 
C                        Gm
So play me that old time music 
Bb           F            C
Play that familiar song 
Добавлено: 16.12.2015
Другие материалы по этой песне:
  • Аккорды и текст

Страница создана 16.12.2015
http://primanota.ru/jamestown-revival/golden-age-chords.htm
Привет, Гость.
Предлагаем пройти революционный курс по гитаре.
Подарок от PrimaNota.Ru, забирай!