PrimaNota.ru - самый крупный в мире бесплатный архив песенных текстов, аккордов, табулатур и нот


James - Moon And The Sun - таба, видео

Регистрация Запомнить меня
Войти через:  Facebook Google Twitter Vk Yandex Mail.ru

James - Moon And The Sun - таба, видео

Печатать
Просмотров: 113
-------------------------------------------------------------------------------
                        Moon And The Sun - James
-------------------------------------------------------------------------------
Tabbed by:wuggle15 (aka James Barton)
Email:wuggle15@hotmail.com

Tuning:Standard (1e 2B 3G 4D 5A 6E)

Intro x4
e|--------------------------------------------------------------------------|
B|--------------------------------------------------------------------------|
G|-4-4-x-4--3-3-x-3--7-7-x-7--5-5-x-5-x-5-----------------------------------|
D|-5-5-x-5--4-4-x-4--8-8-x-8--6-6-x-6-x-6-----------------------------------|
A|-5-5-x-5--4-4-x-4--8-8-x-8--6-6-x-6-x-6-----------------------------------|
E|-3-3-x-3--2-2-x-2--6-6-x-6--4-4-x-4-x-4-----------------------------------|

Second Intro x2
e|--------------------------------------------------------------------------|
B|--------------------------------------------------------------------------|
G|-4-4-x-4-4-4-4-4--3-3-x-3-3-3-3-3--7-7-x-7-7-7-7-7--5-5-x-5-5-5-5-5-------|
D|-5-5-x-5-5-5-5-5--4-4-x-4-4-4-4-4--8-8-x-8-8-8-8-8--6-6-x-6-5-5-5-5-------|
A|-5-5-x-5-5-5-5-5--4-4-x-4-4-4-4-4--8-8-x-8-8-8-8-8--6-6-x-6-6-6-6-6-------|
E|-3-3-x-3-3-3-3-3--2-2-x-2-4-4-4-4--6-6-x-6-6-6-6-6--4-4-x-4-4-4-4-4-------|


Re-Intro x2
e|--------------------------------------------------------------------------|
B|--------------------------------------------------------------------------|
G|-4-4-x-4--3-3-x-3--7-7-x-7--5-5-x-5-x-5-----------------------------------|
D|-5-5-x-5--4-4-x-4--8-8-x-8--6-6-x-6-x-6-----------------------------------|
A|-5-5-x-5--4-4-x-4--8-8-x-8--6-6-x-6-x-6-----------------------------------|
E|-3-3-x-3--2-2-x-2--6-6-x-6--4-4-x-4-x-4-----------------------------------|

Chorus x4
e|--------------------------------------------------------------------------|
B|--------------------------------------------------------------------------|
G|--------------------------------------------------------------------------|
D|--------------------------------------------------------------------------|
A|-4-4-x-6-6-6-6-6-6-6-6-6-6-6-6-6-6-4-3------------------------------------|
E|-2-2-x-4-4-4-4-4-4-4-4-4-4-4-4-4-4-2-1------------------------------------|


e|---------------------------------------------------------------------------|
B|---------------------------------------------------------------------------|
G|---------------------------------------------------------------------------|
D|---------------------------------------------------------------------------|x4
A|-4-4-x-5-5-5-5-5-----------------------------------------------------------|
E|-2-2-x-3-3-3-3-3-----------------------------------------------------------|

End Chorus x1
e|--------------------------------------------------------------------------|
B|--------------------------------------------------------------------------|
G|--------------------------------------------------------------------------|
D|--------------------------------------------------------------------------|
A|-4-4-x-6-6-6-6-6-6-6-6-6-6-6-6-6-6-4-3------------------------------------|
E|-2-2-x-4-4-4-4-4-4-4-4-4-4-4-4-4-4-2-1------------------------------------|

Verse x2
e|--------------------------------------------------------------------------|
B|--------------------------------------------------------------------------|
G|-4-4-x-4--3-3-x-3--7-7-x-7--5-5-x-5-x-5-----------------------------------|
D|-5-5-x-5--4-4-x-4--8-8-x-8--6-6-x-6-x-6-----------------------------------|
A|-5-5-x-5--4-4-x-4--8-8-x-8--6-6-x-6-x-6-----------------------------------|
E|-3-3-x-3--2-2-x-2--6-6-x-6--4-4-x-4-x-4-----------------------------------|

Second Verse x2
e|--------------------------------------------------------------------------|
B|--------------------------------------------------------------------------|
G|-4-4-x-4-4-4-4-4--3-3-x-3-3-3-3-3--7-7-x-7-7-7-7-7--5-5-x-5-5-5-5-5-------|
D|-5-5-x-5-5-5-5-5--4-4-x-4-4-4-4-4--8-8-x-8-8-8-8-8--6-6-x-6-5-5-5-5-------|
A|-5-5-x-5-5-5-5-5--4-4-x-4-4-4-4-4--8-8-x-8-8-8-8-8--6-6-x-6-6-6-6-6-------|
E|-3-3-x-3-3-3-3-3--2-2-x-2-4-4-4-4--6-6-x-6-6-6-6-6--4-4-x-4-4-4-4-4-------|

Re-Verse x2
e|--------------------------------------------------------------------------|
B|--------------------------------------------------------------------------|
G|-4-4-x-4--3-3-x-3--7-7-x-7--5-5-x-5-x-5-----------------------------------|
D|-5-5-x-5--4-4-x-4--8-8-x-8--6-6-x-6-x-6-----------------------------------|
A|-5-5-x-5--4-4-x-4--8-8-x-8--6-6-x-6-x-6-----------------------------------|
E|-3-3-x-3--2-2-x-2--6-6-x-6--4-4-x-4-x-4-----------------------------------|

Chorus x4
e|--------------------------------------------------------------------------|
B|--------------------------------------------------------------------------|
G|--------------------------------------------------------------------------|
D|--------------------------------------------------------------------------|
A|-4-4-x-6-6-6-6-6-6-6-6-6-6-6-6-6-6-4-3------------------------------------|
E|-2-2-x-4-4-4-4-4-4-4-4-4-4-4-4-4-4-2-1------------------------------------|

e|---------------------------------------------------------------------------|
B|---------------------------------------------------------------------------|
G|---------------------------------------------------------------------------|
D|---------------------------------------------------------------------------|x4
A|-4-4-x-5-5-5-5-5-----------------------------------------------------------|
E|-2-2-x-3-3-3-3-3-----------------------------------------------------------|

End Chorus x1
e|--------------------------------------------------------------------------|
B|--------------------------------------------------------------------------|
G|--------------------------------------------------------------------------|
D|--------------------------------------------------------------------------|
A|-4-4-x-6-6-6-6-6-6-6-6-6-6-6-6-6-6-4-3------------------------------------|
E|-2-2-x-4-4-4-4-4-4-4-4-4-4-4-4-4-4-2-1------------------------------------|

Solo x3
e|--------------------------------------------------------------------------|
B|--------------------------------------------------------------------------|
G|--------------------------------------------------------------------------|
D|-9-11-12-14-12-11-12-11-9-------------------------------------------------|
A|--------------------------------------------------------------------------|
E|--------------------------------------------------------------------------|

e|--------------------------------------------------------------------------|
B|--------------------------------------------------------------------------|
G|--------------------------------------------------------------------------|
D|-10-12-13-12h13p12-10-12--------------------------------------------------|
A|--------------------------------------------------------------------------|
E|--------------------------------------------------------------------------|

Verse2 x2
e|--------------------------------------------------------------------------|
B|--------------------------------------------------------------------------|
G|-4-4-x-4--3-3-x-3--7-7-x-7--5-5-x-5-x-5-----------------------------------|
D|-5-5-x-5--4-4-x-4--8-8-x-8--6-6-x-6-x-6-----------------------------------|
A|-5-5-x-5--4-4-x-4--8-8-x-8--6-6-x-6-x-6-----------------------------------|
E|-3-3-x-3--2-2-x-2--6-6-x-6--4-4-x-4-x-4-----------------------------------|

Chorus x4
e|--------------------------------------------------------------------------|
B|--------------------------------------------------------------------------|
G|--------------------------------------------------------------------------|
D|--------------------------------------------------------------------------|
A|-4-4-x-6-6-6-6-6-6-6-6-6-6-6-6-6-6-4-3------------------------------------|
E|-2-2-x-4-4-4-4-4-4-4-4-4-4-4-4-4-4-2-1------------------------------------|

e|---------------------------------------------------------------------------|
B|---------------------------------------------------------------------------|
G|---------------------------------------------------------------------------|
D|---------------------------------------------------------------------------|x4
A|-4-4-x-5-5-5-5-5-----------------------------------------------------------|
E|-2-2-x-3-3-3-3-3-----------------------------------------------------------|

End Chorus x3
e|--------------------------------------------------------------------------|
B|--------------------------------------------------------------------------|
G|--------------------------------------------------------------------------|
D|--------------------------------------------------------------------------|
A|-4-4-x-6-6-6-6-6-6-6-6-6-6-6-6-6-6-4-3------------------------------------|
E|-2-2-x-4-4-4-4-4-4-4-4-4-4-4-4-4-4-2-1------------------------------------|
play slower each time but make sure it still sounds like a rythm so not to slow.

| h  hammer-on
| p  pull-off
| x  Mute note
===============================================================================
Добавлено: 25.06.2012
Другие материалы по этой песне:
  • Аккорды и текст

Страница создана 25.06.2012
http://primanota.ru/james/moon-and-the-sun-chords.htm
Привет, Гость.
Предлагаем пройти революционный курс по гитаре.
Подарок от PrimaNota.Ru, забирай!