PrimaNota.ru - самый крупный в мире бесплатный архив песенных текстов, аккордов, табулатур и нот


James - Loco - таба, видео

Регистрация Запомнить меня
Войти через:  Facebook Google Twitter Vk Yandex Mail.ru

James - Loco - таба, видео

Печатать
Просмотров: 122
-------------------------------------------------------------------------------
                             LOCO - James
-------------------------------------------------------------------------------
Tabbed by:wuggle15 (aka James Barton)
Email:wuglle15@hotmail.com

Tuning:1e 2B 3G 4D 5A 6E

e|--10/12-12\9-9h10---------5/7-7-9-----------------------------------------|
B|-----------------9-10-10b---------7-9-7-----------------------------------|
G|--------------------------------------------------------------------------|
D|--------------------------------------------------------------------------|
A|--------------------------------------------------------------------------|
E|--------------------------------------------------------------------------|

e|--------------------------------------------------------------------------|
B|--------------------------------------8---8-------------------------------|
G|--5/12-12-9-12-10-9h10-7-9-7-7-9-7-7h9-7h9-7h9-7-9-7-7-9-7----------------|
D|--------------------------------------------------------------------------|
A|--------------------------------------------------------------------------|
E|--------------------------------------------------------------------------|

e|---------------3h4--------------------4\3-------------------3h4-----------|
B|-----4---4---4-----3h4-----4---4---4------4\3-----4---4---4-----3h4/12----|
G|--3h5-3h5-3h5-----------3h5-3h4-3h4------------3h5-3h5-3h5----------------|
D|--------------------------------------------------------------------------|
A|--------------------------------------------------------------------------|
E|--------------------------------------------------------------------------|

e|--10/12-12\9-9h10---------5/7-7-9-----------------------------------------|
B|-----------------9-10-10b---------7-9-7-----------------------------------|
G|--------------------------------------------------------------------------|
D|--------------------------------------------------------------------------|
A|--------------------------------------------------------------------------|
E|--------------------------------------------------------------------------|

e|--------------------------------------------------------------------------|
B|--------------------------------------8---8-------------------------------|
G|--5/12-12-9-12-10-9h10-7-9-7-7-9-7-7h9-7h9-7h9-7-9-7-7-9-7----------------|
D|--------------------------------------------------------------------------|
A|--------------------------------------------------------------------------|
E|--------------------------------------------------------------------------|

e|---------------3h4--------------------4\3-------------------3h4-----------|
B|-----4---4---4-----3h4-----4---4---4------4\3-----4---4---4-----3h4/12----|
G|--3h5-3h5-3h5-----------3h5-3h4-3h4------------3h5-3h5-3h5----------------|
D|--------------------------------------------------------------------------|
A|--------------------------------------------------------------------------|
E|--------------------------------------------------------------------------|

SOLO
e|--15-----------15-15\13-13-14------------15---------------15--------------|
B|----13-15--------------------13-14---------13-15--------15----------------|
G|---------13-15--------------------13-14---------13-15-15------------------|
D|--------------------------------------------------------------------------|
A|--------------------------------------------------------------------------|
E|--------------------------------------------------------------------------|

e|--15\13-13-14-----------15------------------------------------------------|
B|-------------13-14--------13-15----------------1315131513151315-----------|
G|------------------13-14--------1315131513151315---------------------------|
D|--------------------------------------------------------------------------|
A|--------------------------------------------------------------------------|
E|--------------------------------------------------------------------------|

e|--1314131413141314-1213121312131213---------------------------------------|
B|-----------------------------------1213121312131213-----------------------|
G|---------------------------------------------------1213121312131213-12/18-|
D|--------------------------------------------------------------------------|
A|--------------------------------------------------------------------------|
E|--------------------------------------------------------------------------|

e|--------------------------------------------------------------------------|
B|--------------------------------------------------------------------------|
G|--1818\12-1212\7/12-12----------------------------------------------------|
D|--------------------------------------------------------------------------|
A|--------------------------------------------------------------------------|
E|--------------------------------------------------------------------------|

e|--10/12-12\9-9h10---------5/7-7-9-----------------------------------------|
B|-----------------9-10-10b---------7-9-7-----------------------------------|
G|--------------------------------------------------------------------------|
D|--------------------------------------------------------------------------|
A|--------------------------------------------------------------------------|
E|--------------------------------------------------------------------------|

e|--------------------------------------------------------------------------|
B|--------------------------------------8---8-------------------------------|
G|--5/12-12-9-12-10-9h10-7-9-7-7-9-7-7h9-7h9-7h9-7-9-7-7-9-7p---------------|
D|--------------------------------------------------------------------------|
A|--------------------------------------------------------------------------|
E|--------------------------------------------------------------------------|


| /  slide up
| \  slide down
| p  pull-off
| h  hammer-on
===============================================================================
Добавлено: 09.05.2012
Другие материалы по этой песне:
  • Аккорды и текст

Страница создана 09.05.2012
http://primanota.ru/james/loco-chords.htm
Привет, Гость.
Предлагаем пройти революционный курс по гитаре.
Подарок от PrimaNota.Ru, забирай!