PrimaNota.ru - самый крупный в мире бесплатный архив песенных текстов, аккордов, табулатур и нот


James - Fallen Away From You - таба, видео

Регистрация Запомнить меня
Войти через:  Facebook Google Twitter Vk Yandex Mail.ru

James - Fallen Away From You - таба, видео

Печатать
Просмотров: 117
-------------------------------------------------------------------------------
                             Fallen Away From You - James
-------------------------------------------------------------------------------
Tabbed by:wuggle15(aka James Barton)
Email:wuggle15@hotmail.com

Tuning:e1 2B 3G 4D 5A 6E

if you have any suggestion or if its good/bad please comment and rate please.thanks

Intro X2

e|--------------------------------------------------------------------------|
B|--------------------------------------------------------------------------|
G|-11-11-11-11--4-4-4-4--6-6-6-6--8-8-8-8-----------------------------------|
D|-12-12-12-12--5-5-5-5--7-7-7-7--9-9-9-9-----------------------------------|
A|-10-10-10-10--3-3-3-3--5-5-5-5--7-7-7-7-----------------------------------|
E|-10-10-10-10--3-3-3-3--5-5-5-5--7-7-7-7-----------------------------------|

Verse1 X4

e|--------------------------------------------------------------------------|
B|--------------------------------------------------------------------------|
G|-11-11-11-11--4-4-4-4--6-6-6-6--8-8-8-8-----------------------------------|
D|-12-12-12-12--5-5-5-5--7-7-7-7--9-9-9-9-----------------------------------|
A|-10-10-10-10--3-3-3-3--5-5-5-5--7-7-7-7-----------------------------------|
E|-10-10-10-10--3-3-3-3--5-5-5-5--7-7-7-7-----------------------------------|

Verse1 part2 X4

e|--------------------------------------------------------------------------|
B|--------------------------------------------------------------------------|
G|--------------------------------------------------------------------------|
D|--------------------------------------------------------------------------|
A|-9-9-9-9--3-3-3-3--5-5-5-5--7-7-7-7---------------------------------------|
E|-9-9-9-9--3-3-3-3--5-5-5-5--7-7-7-7---------------------------------------|

Chorus X4

e|--------------------------------------------------------------------------|
B|--------------------------------------------------------------------------|
G|-12-12-12-12--5-5-5-5--7-7-7-7-7-7-7-7------------------------------------|
D|-10-10-10-10--3-3-3-3--5-5-5-5-5-5-5-5------------------------------------|
A|--------------------------------------------------------------------------|
E|--------------------------------------------------------------------------|

Chorus part2 X4

e|--------------------------------------------------------------------------|
B|--------------------------------------------------------------------------|
G|-9-9-9-9--5-5-5-5--7-7-7-7-7-7-7-7----------------------------------------|
D|-7-7-7-7--3-3-3-3--5-5-5-5-5-5-5-5----------------------------------------|
A|--------------------------------------------------------------------------|
E|--------------------------------------------------------------------------|

Verse1 X4

e|--------------------------------------------------------------------------|
B|--------------------------------------------------------------------------|
G|-11-11-11-11--4-4-4-4--6-6-6-6--8-8-8-8-----------------------------------|
D|-12-12-12-12--5-5-5-5--7-7-7-7--9-9-9-9-----------------------------------|
A|-10-10-10-10--3-3-3-3--5-5-5-5--7-7-7-7-----------------------------------|
E|-10-10-10-10--3-3-3-3--5-5-5-5--7-7-7-7-----------------------------------|

Verse1 part2 X4

e|--------------------------------------------------------------------------|
B|--------------------------------------------------------------------------|
G|--------------------------------------------------------------------------|
D|--------------------------------------------------------------------------|
A|-9-9-9-9--3-3-3-3--5-5-5-5--7-7-7-7---------------------------------------|
E|-9-9-9-9--3-3-3-3--5-5-5-5--7-7-7-7---------------------------------------|

Chorus X4

e|--------------------------------------------------------------------------|
B|--------------------------------------------------------------------------|
G|-12-12-12-12--5-5-5-5--7-7-7-7-7-7-7-7------------------------------------|
D|-10-10-10-10--3-3-3-3--5-5-5-5-5-5-5-5------------------------------------|
A|--------------------------------------------------------------------------|
E|--------------------------------------------------------------------------|

Chorus part2 X4

e|--------------------------------------------------------------------------|
B|--------------------------------------------------------------------------|
G|-9-9-9-9--5-5-5-5--7-7-7-7-7-7-7-7----------------------------------------|
D|-7-7-7-7--3-3-3-3--5-5-5-5-5-5-5-5----------------------------------------|
A|--------------------------------------------------------------------------|
E|--------------------------------------------------------------------------|

Bridge X4

e|--------------------------------------------------------------------------|
B|--------------------------------------------------------------------------|
G|-12-12-12-12--5-5-5-5--7-7-7-7--9-9-9-9-----------------------------------|
D|-10-10-10-10--3-3-3-3--5-5-5-5--7-7-7-7-----------------------------------|
A|--------------------------------------------------------------------------|
E|--------------------------------------------------------------------------|

Solo

e|--------------------------------------------------------------------------|
B|----------66--------------66-------------8---------8----------------------|
G|-10-8-6-8----8-6-10-8-6-8----8-6-10-10-8---10-10-8------------------------|
D|--------------------------------------------------------------------------|
A|--------------------------------------------------------------------------|
E|--------------------------------------------------------------------------|

e|--------------------------------------------------------------------------|
B|----------66--------------66-------------8-10---------8-10----------------|
G|-10-8-6-8----86-10-8-6-8-----8-6-10-10-8------10-10-8---------------------|
D|--------------------------------------------------------------------------|
A|--------------------------------------------------------------------------|
E|--------------------------------------------------------------------------|

e|--------------------------------------------------------------------------|
B|---------10-8-------------------------------------------------------------|
G|-10-8h10------8-10~/12----------------------------------------------------|
D|--------------------------------------------------------------------------|
A|--------------------------------------------------------------------------|
E|--------------------------------------------------------------------------|

Outro X2

e|--------------------------------------------------------------------------|
B|--------------------------------------------------------------------------|
G|-11-11-11-11--4-4-4-4--6-6-6-6--8-8-8-8-8~~~------------------------------|
D|-12-12-12-12--5-5-5-5--7-7-7-7--9-9-9-9-9~~~------------------------------|
A|-10-10-10-10--3-3-3-3--5-5-5-5--7-7-7-7-7~~~------------------------------|
E|-10-10-10-10--3-3-3-3--5-5-5-5--7-7-7-7-7~~~------------------------------|

| /  slide up
| h  hammer-on
| ~  let note ring out
===============================================================================
Добавлено: 08.07.2012
Другие материалы по этой песне:
  • Аккорды и текст

Страница создана 08.07.2012
http://primanota.ru/james/fallen-away-from-you-chords.htm
Привет, Гость.
Предлагаем пройти революционный курс по гитаре.
Подарок от PrimaNota.Ru, забирай!