PrimaNota.ru - самый крупный в мире бесплатный архив песенных текстов, аккордов, табулатур и нот


James - Always Fighting - таба, видео

Регистрация Запомнить меня
Войти через:  Facebook Google Twitter Vk Yandex Mail.ru

James - Always Fighting - таба, видео

Печатать
Просмотров: 134
-------------------------------------------------------------------------------
                        Always Fighting - James
-------------------------------------------------------------------------------
Tabbed by:wuggle15 (aka James Barton)
Email:wuggle15@hotmail.com

Tuning:Drop C (CGCFAD)

This Is My First Tab Done In Drop C So Could You Please Comment And Rate It
Well Here It Is

Intro
D|--------------------------------------------------------------------------|
A|-15-16-17-012-13-15-09-10-12-5-7-9-0--------------------------------------|
F|--------------------------------------------------------------------------|
C|--------------------------------------------------------------------------|
G|--------------------------------------------------------------------------|
C|--------------------------------------------------------------------------|

D|--------------------------------------------------------------------------|
A|-15-16-17-012-13-15-09-10-12-5-7-9-8-6------------------------------------|
F|--------------------------------------------------------------------------|
C|--------------------------------------------------------------------------|
G|--------------------------------------------------------------------------|
C|--------------------------------------------------------------------------|

Reapet intro

Verse x8
D|--------------------------------------------------------------------------|
A|--------------------------------------------------------------------------|
F|--------------------------------------------------------------------------|
C|-3-0-x-x-x-x-7-0----------------------------------------------------------|
G|-3-0-x-x-x-x-7-0----------------------------------------------------------|
C|-3-0-x-x-x-x-7-0----------------------------------------------------------|

Pre Chorus
D|---------------------------------------------------------------------------|
A|---------------------------------------------------------------------------|
F|---------------------------------------------------------------------------|
C|-x0-x0-x0-x0-0-------------------------------------------------------------|x3
G|-x0-x0-x0-x0-0-------------------------------------------------------------|
C|-x0-x0-x0-x0-0-------------------------------------------------------------|

D|--------------------------------------------------------------------------|
A|--------------------------------------------------------------------------|
F|--------------------------------------------------------------------------|
C|-x0-x0-x0-x0-3------------------------------------------------------------|
G|-x0-x0-x0-x0-3------------------------------------------------------------|
C|-x0-x0-x0-x0-3------------------------------------------------------------|

D|--------------------------------------------------------------------------|
A|--------------------------------------------------------------------------|
F|--------------------------------------------------------------------------|
C|-x0-x0-x0-x0-7------------------------------------------------------------|
G|-x0-x0-x0-x0-7------------------------------------------------------------|
C|-x0-x0-x0-x0-7------------------------------------------------------------|

D|--------------------------------------------------------------------------|
A|--------------------------------------------------------------------------|
F|--------------------------------------------------------------------------|
C|-x0-x0-x0-x0-3------------------------------------------------------------|
G|-x0-x0-x0-x0-3------------------------------------------------------------|
C|-x0-x0-x0-x0-3------------------------------------------------------------|

D|--------------------------------------------------------------------------|
A|--------------------------------------------------------------------------|
F|--------------------------------------------------------------------------|
C|-x0-x0-x0-x0-7------------------------------------------------------------|
G|-x0-x0-x0-x0-7------------------------------------------------------------|
C|-x0-x0-x0-x0-7------------------------------------------------------------|

Chorus x2
D|--------------------------------------------------------------------------|
A|--------------------------------------------------------------------------|
F|--------------------------------------------------------------------------|
C|-x3-3-3-3-x9-9-9-9-x5-5-5-5-x7-7-7-7--------------------------------------|
G|-x3-3-3-3-x9-9-9-9-x5-5-5-5-x7-7-7-7--------------------------------------|
C|-x3-3-3-3-x9-9-9-9-x5-5-5-5-x7-7-7-7--------------------------------------|

Verse2 x8
D|--------------------------------------------------------------------------|
A|--------------------------------------------------------------------------|
C|-3-0-x-x-x-x-7-0----------------------------------------------------------|
G|-3-0-x-x-x-x-7-0----------------------------------------------------------|
C|-3-0-x-x-x-x-7-0----------------------------------------------------------|

Pre Chorus
D|---------------------------------------------------------------------------|
A|---------------------------------------------------------------------------|
F|---------------------------------------------------------------------------|
C|-x0-x0-x0-x0-0-------------------------------------------------------------|x3
G|-x0-x0-x0-x0-0-------------------------------------------------------------|
C|-x0-x0-x0-x0-0-------------------------------------------------------------|

D|--------------------------------------------------------------------------|
A|--------------------------------------------------------------------------|
F|--------------------------------------------------------------------------|
C|-x0-x0-x0-x0-3------------------------------------------------------------|
G|-x0-x0-x0-x0-3------------------------------------------------------------|
C|-x0-x0-x0-x0-3------------------------------------------------------------|

D|--------------------------------------------------------------------------|
A|--------------------------------------------------------------------------|
F|--------------------------------------------------------------------------|
C|-x0-x0-x0-x0-7------------------------------------------------------------|
G|-x0-x0-x0-x0-7------------------------------------------------------------|
C|-x0-x0-x0-x0-7------------------------------------------------------------|

D|--------------------------------------------------------------------------|
A|--------------------------------------------------------------------------|
F|--------------------------------------------------------------------------|
C|-x0-x0-x0-x0-3------------------------------------------------------------|
G|-x0-x0-x0-x0-3------------------------------------------------------------|
C|-x0-x0-x0-x0-3------------------------------------------------------------|

D|--------------------------------------------------------------------------|
A|--------------------------------------------------------------------------|
F|--------------------------------------------------------------------------|
C|-x0-x0-x0-x0-7------------------------------------------------------------|
G|-x0-x0-x0-x0-7------------------------------------------------------------|
C|-x0-x0-x0-x0-7------------------------------------------------------------|

Chorus x4
D|--------------------------------------------------------------------------|
A|--------------------------------------------------------------------------|
F|--------------------------------------------------------------------------|
C|-x3-3-3-3-x9-9-9-9-x5-5-5-5-x7-7-7-7--------------------------------------|
G|-x3-3-3-3-x9-9-9-9-x5-5-5-5-x7-7-7-7--------------------------------------|
C|-x3-3-3-3-x9-9-9-9-x5-5-5-5-x7-7-7-7--------------------------------------|

Bridge
D|--------------------------------------------------------------------------|
A|--------------------------------------------------------------------------|
F|--------------------------------------------------------------------------|
C|-9-9-7-7-5-5-3-3~-3-------------------------------------------------------|
G|-9-9-7-7-5-5-3-3~-3-------------------------------------------------------|
C|-9-9-7-7-5-5-3-3~-3-------------------------------------------------------|

D|--------------------------------------------------------------------------|
A|--------------------------------------------------------------------------|
F|--------------------------------------------------------------------------|
C|-9-9-7-7-5-5-3-3-1-1------------------------------------------------------|
G|-9-9-7-7-5-5-3-3-1-1------------------------------------------------------|
C|-9-9-7-7-5-5-3-3-1-1------------------------------------------------------|

Solo
D|---------------------------------------------------------------------------|
A|---------------------------------------------------------------------------|
F|---------------------------------------------------------------------------|
C|-9-10-11-------------------------------------------------------------------|x4
G|---------------------------------------------------------------------------|
C|---------------------------------------------------------------------------|

D|---------------------------------------------------------------------------|
A|---------------------------------------------------------------------------|
F|-9-11-12-10V---------------------------------------------------------------|
C|---------------------------------------------------------------------------|x4
G|---------------------------------------------------------------------------|
C|---------------------------------------------------------------------------|
(only do the vibrato on the fourth time)

D|--------------------------------------------------------------------------|
A|--------------------------------------------------------------------------|
F|-5-7-5-7-5-7-5-7-7-9-7-9-7-9-7-9-9-12-9-12-9-12-9-12----------------------|
C|--------------------------------------------------------------------------|
G|--------------------------------------------------------------------------|
C|--------------------------------------------------------------------------|


D|---------------------------------------------------------------------------|
A|---------------------------------------------------------------------------|
F|---------------------------------------------------------------------------|
C|-9-11-12-------------------------------------------------------------------|x4
G|---------------------------------------------------------------------------|
C|---------------------------------------------------------------------------|

D|---------------------------------------------------------------------------|
A|---------------------------------------------------------------------------|
F|-9-11-12-10V---------------------------------------------------------------|x4
C|---------------------------------------------------------------------------|
G|---------------------------------------------------------------------------|
C|---------------------------------------------------------------------------|
(only do the vibrato on the fourth time)

D|--------------------------------------------------------------------------|
A|--------------------------------------------------------------------------|
F|-5-7-5-7-5-7-5-7-7-9-7-9-7-9-7-9-9-12-9-12-9-12-9-12----------------------|
C|--------------------------------------------------------------------------|
G|--------------------------------------------------------------------------|
C|--------------------------------------------------------------------------|

D|--------------------------------------------------------------------------|
A|--------------------------------------------------------------------------|
F|-12-15-12-15-12-15-12-15-15-17-15-17-15-17-15-17-17-19-17-19-17-19-17-19--|
C|--------------------------------------------------------------------------|
G|--------------------------------------------------------------------------|
C|--------------------------------------------------------------------------|

D|--------------------------------------------------------------------------|
A|--------------------------------------------------------------------------|
F|-19-21-19-21-19-21-19-21-21-21^b------------------------------------------|
C|--------------------------------------------------------------------------|
G|--------------------------------------------------------------------------|
C|--------------------------------------------------------------------------|

Pre Chorus
D|---------------------------------------------------------------------------|
A|---------------------------------------------------------------------------|
F|---------------------------------------------------------------------------|
C|-x0-x0-x0-x0-0-------------------------------------------------------------|x3
G|-x0-x0-x0-x0-0-------------------------------------------------------------|
C|-x0-x0-x0-x0-0-------------------------------------------------------------|

D|--------------------------------------------------------------------------|
A|--------------------------------------------------------------------------|
F|--------------------------------------------------------------------------|
C|-x0-x0-x0-x0-3------------------------------------------------------------|
G|-x0-x0-x0-x0-3------------------------------------------------------------|
C|-x0-x0-x0-x0-3------------------------------------------------------------|

D|--------------------------------------------------------------------------|
A|--------------------------------------------------------------------------|
F|--------------------------------------------------------------------------|
C|-x0-x0-x0-x0-7------------------------------------------------------------|
G|-x0-x0-x0-x0-7------------------------------------------------------------|
C|-x0-x0-x0-x0-7------------------------------------------------------------|

D|--------------------------------------------------------------------------|
A|--------------------------------------------------------------------------|
F|--------------------------------------------------------------------------|
C|-x0-x0-x0-x0-3------------------------------------------------------------|
G|-x0-x0-x0-x0-3------------------------------------------------------------|
C|-x0-x0-x0-x0-3------------------------------------------------------------|

D|--------------------------------------------------------------------------|
A|--------------------------------------------------------------------------|
F|--------------------------------------------------------------------------|
C|-x0-x0-x0-x0-7------------------------------------------------------------|
G|-x0-x0-x0-x0-7------------------------------------------------------------|
C|-x0-x0-x0-x0-7------------------------------------------------------------|

Chorus x4
D|--------------------------------------------------------------------------|
A|--------------------------------------------------------------------------|
F|--------------------------------------------------------------------------|
C|-x3-3-3-3-x9-9-9-9-x5-5-5-5-x7-7-7-7--------------------------------------|
G|-x3-3-3-3-x9-9-9-9-x5-5-5-5-x7-7-7-7--------------------------------------|
C|-x3-3-3-3-x9-9-9-9-x5-5-5-5-x7-7-7-7--------------------------------------|

Outro
D|--------------------------------------------------------------------------|
A|-15-16-17-012-13-15-09-10-12-5-7-9-0--------------------------------------|
F|--------------------------------------------------------------------------|
C|--------------------------------------------------------------------------|
G|--------------------------------------------------------------------------|
C|--------------------------------------------------------------------------|

D|--------------------------------------------------------------------------|
A|-15-16-17-012-13-15-09-10-12-5-7-9-8-6------------------------------------|
F|--------------------------------------------------------------------------|
C|--------------------------------------------------------------------------|
G|--------------------------------------------------------------------------|
C|--------------------------------------------------------------------------|

(play slower each time)
D|---------------------------------------------------------------------------|
A|-15-16-17-012-13-15-09-10-12-5-7-9-8-6-------------------------------------|x4
F|---------------------------------------------------------------------------|
C|---------------------------------------------------------------------------|
G|---------------------------------------------------------------------------|
C|---------------------------------------------------------------------------|

D|--------------------------------------------------------------------------|
A|-3V-----------------------------------------------------------------------|
F|--------------------------------------------------------------------------|
C|--------------------------------------------------------------------------|
G|--------------------------------------------------------------------------|
C|--------------------------------------------------------------------------|
(keep the vibrato intill the sound stops)

| /  Quick slide up
| ~  Hold note
| ^  Pinch harmonic
| x  Palm mute
| V  Vibrato
===============================================================================
Добавлено: 23.06.2012
Другие материалы по этой песне:
  • Аккорды и текст

Страница создана 23.06.2012
http://primanota.ru/james/always-fighting-chords.htm
Привет, Гость.
Предлагаем пройти революционный курс по гитаре.
Подарок от PrimaNota.Ru, забирай!