PrimaNota.ru - самый крупный в мире бесплатный архив песенных текстов, аккордов, табулатур и нот


James Wilkinson - Dadadadadadadada - таба

Регистрация Запомнить меня
Войти через:  Facebook Google Twitter Vk Yandex Mail.ru

James Wilkinson - Dadadadadadadada - таба

Печатать
Просмотров: 38
-------------------------------------------------------------------------------
                             Dadadadadadadada - James Wilkinson
-------------------------------------------------------------------------------
Tabbed by: James Wilkinson
E-mail: jpwilk99@yahoo.co.uk

Tuning: Standard

e|---------------------------------------------------------------------------|
B|---------------------------------------------------------------------------|
G|---------------------------------------------------------------------------|
D|------------------0-------2------------------------0-------2---------------|
A|------2p0-4p0-------4p2-----4p2--------2p0-4p0-------4p2-----4p2-----------|
E|--0h4---------3p0-------3-------3--0h4---------3p0-------3-------3---------|

e|---------------------------------------------------------------------------|
B|---------------------------------------------------------------------------|
G|------------------0-------2------------------------------------------------|
D|------2p0-4p0-------4p2-----4p2--------------------0-------2---------------|
A|--0h4---------3p0-------3-------3------2p0-4p0-------4p2-----4p2-----------|
E|-----------------------------------0h4---------3p0-------3-------3---------|

e|---------------------------------------------------------------------------|
B|---------------------------------------------------------------------------|
G|------4-4-0-0---------2-2-0-0----------------------------------------------|
D|--------------4-4-------------2-2------------------------------------------|
A|--2-2-------------0-0------------------------------------------------------|
E|-----------------------------------5p0-3p0-5p0-3p0-3/7--7--7\3-------------|



************************************

| /   slide up
| \   slide down
| h   hammer-on
| p   pull-off
| ~   vibrato
| +   harmonic
| x   Mute note
| b   Bend
| pb  Pre-bend
| br  Bend release
| pbr Pre-bend release
| brb Bend release bend

************************************
Добавлено: 24.12.2015
Другие материалы по этой песне:
  • Аккорды и текст

Страница создана 24.12.2015
http://primanota.ru/james-wilkinson/dadadadadadadada-chords.htm
Привет, Гость.
Предлагаем пройти революционный курс по гитаре.
Подарок от PrimaNota.Ru, забирай!