PrimaNota.ru - самый крупный в мире бесплатный архив песенных текстов, аккордов, табулатур и нот


James Tillman - Love Within - таба, видео

Регистрация Запомнить меня
Войти через:  Facebook Google Twitter Vk Yandex Mail.ru

James Tillman - Love Within - таба, видео

Печатать
Просмотров: 164
James Tillman - Love Within

Standard Tuning

Love Within (album Shagri La) - https://www.youtube.com/watch?v=LsLngcHzziI

tabbed by: huncasmartins 

    Repeat 4x every box 3 times
e-----------------------|----------------------|---------------------|---------------------|
B------5-----5-----5----|-----7-----7-----7----|-----5-----5-----5---|-----6-----6-----6---|
G--------4-----4--------|-------6-----6--------|-------4-----4-------|-------5-----5-------|
D-----------------------|----------------------|---------------------|---------------------|
A----4-----4-----4------|---5-----5-----5------|---4-----4-----4-----|---4-----4-----4-----|
E-----------------------|----------------------|---------------------|---------------------|
  Closing of my eyes...                                               

          
    Repeat 2x                2x                      4x          4x then repeat previous box 3x
e-----------------|----------------------|----------------------|------------------------------|
B-----5-----5-----|------3-----3-----3---|-----2-----2-----2----|-----2-----2-----2------------|
G-------4-----4---|--------2-----2-------|-------1-----1--------|-------1-----1-----1----------|
D-----------------|----------------------|----------------------|------------------------------|
A---4-----4-------|---\2-----2-----2-----|---1-----1-----1------|---0-----0-----0--------------|
E-----------------|----------------------|----------------------|------------------------------|
  Oh~, I really...    

Follow these tabs and you should be fine to play solo, he later makes a finger capo and adds
one note to the rythm, but it's pretty much the same tho its a lil bit cooler :p
Was searching for some songs, found this song pretty interesting, and had to share.


************************************

| /   slide up
| \   slide down
| h   hammer-on
| p   pull-off
| ~   vibrato
| +   harmonic
| x   Mute note
| b   Bend
| pb  Pre-bend
| br  Bend release
| pbr Pre-bend release
| brb Bend release bend

************************************
Добавлено: 02.08.2015
Другие материалы по этой песне:
  • Аккорды и текст

Страница создана 02.08.2015
http://primanota.ru/james-tillman/love-within-chords.htm
Привет, Гость.
Предлагаем пройти революционный курс по гитаре.
Подарок от PrimaNota.Ru, забирай!