PrimaNota.ru - самый крупный в мире бесплатный архив песенных текстов, аккордов, табулатур и нот


James Taylor - Devoted To You - таба, видео

Регистрация Запомнить меня
Войти через:  Facebook Google Twitter Vk Yandex Mail.ru

James Taylor - Devoted To You - таба, видео

Печатать
Просмотров: 82
Devoted To You:James Taylor
Tabulated By:John Francis T. Magalona

The first time I heard this song I think of someone that which I Love Of all my 
Life...I specially dedicated this song to Phia...the reason why I can tabulate 
this song through listening it...YEbah!!!!Mahal na mahal Kita...

Intro:

G
------------------0---------------3-----------------------------------
---3--------2-------0---0-----3-------3-------------------------------
-----0---0----2-------------2---2---2---2-----------------------------
-0-----0--------2-----2---0-------------------------------------------
------------0---------------------------------------------------------
---3------------------------------------------------------------------

Verse:

D
-----2---------3----------------------2-------2-----------------2---------
-------3-----3-------2-------3----------3-------3-----2-------3-----------
---2-------0-----------2---2---2----2-------2-----------2---2-------------
-0-----------------2-----0--------0-------0---------2-----0---------------
-----------------0--------------------------------0-----------------------
---------3----------------------------------------------------------------
G
-------3-------2-------0------2-------3----------0----------------3-------
-----3-------2-------0------3-------3-------2------2----------3-------3---
---0-------2-------0------2-------0-----------2------2------2---2---2---2-
------------------------0-----------------2------------0--0---------------
----------------------------------------0---------------------------------
-3-------2-------0--------------3-----------------------------------------


Bridge:

----------------------------------------------------------3---------------
-----3-------3-------3-------3-------3--------3-------3-------3-----------
---0---0---0---0---2---2---2---2---0---0----0---0---2---2---2---2---------
------------------0------0------------------------0-----------------------
--------------------------------------------------------------------------
-3-------3-----------------------3--------3-------------------------------


----------------------------------------------------------0-------------2--2
-----3-------3-------3-------3-------3--------3---------2---2---------3----3
---0---0---0---0---2---2---2---2---0---0----0---0-----2-------2-----2------2
------------------0------0--------------------------2-----------2-0--------0
--------------------------------------------------0-------------------------
-3-------3-----------------------3--------3---------------------------------

Follow the flow of the song,it will give you the chance to play this song,for
other tabs and chords e-mail me at Jfm_788@techemail.com.
     
Добавлено: 19.08.2013
Другие материалы по этой песне:
  • Аккорды и текст

Страница создана 19.08.2013
http://primanota.ru/james-taylor/devoted-to-you-chords.htm
Привет, Гость.
Предлагаем пройти революционный курс по гитаре.
Подарок от PrimaNota.Ru, забирай!