PrimaNota.ru - самый крупный в мире бесплатный архив песенных текстов, аккордов, табулатур и нот


James Taylor - Bartender's Blues - текст песни, бас-таба, видео

Регистрация Запомнить меня
Войти через:  Facebook Google Twitter Vk Yandex Mail.ru

James Taylor - Bartender's Blues - текст песни, бас-таба, видео

Печатать
Просмотров: 49
Новый альбом группы 'Черный Кузнец' по культовому сериалу 'Сверхъестественное'!
Авторы музыки: James Taylor
Авторы текста: James Taylor
Bass Start - 00:17


[Verse 1]
G|------------|
D|------------|
A|---------0--|
E|-1---3------|

G|----------|----------|-----------|-----------|----------|------------|-----------|------------|
D|----------|----------|-1--------0|-----------|----------|------------|-----------|------------|
A|-1--------|-1--------|-----------|-3---------|----------|---------0--|-1---------|---------0--|
E|----------|----------|-----------|----------3|-1--------|-1---3------|----------0|-1---3------|

G|-----------|-----------|-----------|-----------|----------|------------|----------|------------|
D|-----------|-3--------0|-1--------0|-----------|----------|------------|----------|------------|
A|-1--------1|-----------|-----------|-3---------|----------|---------0--|-1--------|---------0--|
E|-----------|-----------|-----------|----------3|-1--------|-1---3------|----------|-1---3------|

G|------------|--------------|-----------|------------|----------|------------|----------|-------------|
D|------------|--------------|-----------|------------|----------|------------|----------|-3---5---7--\|
A|-1-------3-4|-5------5/8---|-6--------5|-3-------1--|----------|---------0--|-1--------|-------------|
E|------------|-------------6|-----------|-----------3|-1--------|-1---3------|----------|-------------|

G|-----------|-----------|-----------|-----------|----------|------------|------------|------------|
D|-----------|----------0|-1--------0|-----------|----------|------------|---------0-1|-3----------|
A|-1--------1|-1---------|-----------|-3---------|----------|---------0--|-1----------|---------3--|
E|-----------|-----------|-----------|----------3|-1--------|-1---3------|------------|-----1------|

G|-----------|------------|-----------|-----------|----------|------------|-----------|------------|
D|-----------|-0-------1-3|-1--------0|-----------|----------|------------|-----------|------------|
A|-1--------1|------------|-----------|-3---------|----------|---------0--|-1---------|---------0--|
E|-----------|------------|-----------|----------3|-1--------|-1---3------|----------0|-1---3------|

[Chorus]
G|------------|------------|-----------|-----------|----------|------------|------------|------------|
D|--------3---|---------0--|-1--------0|-----------|----------|------------|------------|------------|
A|-1----------|-1---3------|-----------|-3---------|----------|---------0--|-1-------0--|---------0--|
E|-----------1|------------|-----------|----------3|-1--------|-1---3------|-----------3|-1---3------|

G|-----------|------------|-----------|------------|----------|------------|----------|------------|
D|-----------|---------0--|-1--------0|------------|----------|------------|----------|------------|
A|-1---------|-1---3------|-----------|-3-------1--|----------|---------0--|-1--------|---------0--|
E|----------1|------------|-----------|-----------3|-1--------|-1---3------|----------|-1---3------|

[Instrumental]
G|-----------|------------|-----------|-----------|-----------|------------|-----------|------------------|
D|-----------|------------|-----------|-----------|-----------|------------|-----------|-3/5--3-0---------|
A|-1---------|-1------1--/|-6--------5|-3---------|-----------|---------0--|-1--------1|-----------3------|
E|----------1|------------|-----------|----------3|-1--------0|-1---3------|-----------|-------------1-1-3|

G|-----------|------------|-----------|------------|-----------|------------|----------|------------|
D|-----------|---------0--|-1--------0|------------|-----------|------------|----------|------------|
A|-1---------|-1---3------|-----------|-3-------1--|-----------|---------0--|-1--------|---------0--|
E|----------1|------------|-----------|-----------3|-1--------0|-1---3------|----------|-1---3------|

[Verse 2]
G|-----------|------------|-----------|-----------|----------|------------|----------|------------|
D|-----------|-----------0|-1--------0|-----------|----------|------------|----------|------------|
A|-1---------|-1---1------|-----------|-3---------|----------|---------0--|-1--------|---------0--|
E|----------1|------------|-----------|----------3|-1--------|-1---3------|----------|-1---3------|

G|-----------|-----------|-----------|----------|-----------|------------|----------|------------|
D|-----------|----------0|-1---------|----------|-----------|------------|----------|------------|
A|-1---------|-1---------|-----------|----------|-----------|---------0--|-1--------|---------0--|
E|----------1|-----------|---------10|-8------8\|-1--------0|-1---3------|----------|-1---3------|

[Outro]
G|-----------|-------------|-----------|------------|----------|------------|-----------|------------|
D|-----------|------------0|-1--------0|------------|----------|------------|-----------|------------|
A|-1---------|-1------1-3--|-----------|-3-------1--|----------|---------0--|-1---------|---------0--|
E|----------1|-------------|-----------|-----------3|-1--------|-1---3------|----------0|-1---3------|

G|------------|-----------3|-----------|------------|-----------|----------|----------------|
D|------------|--------3---|-1--------0|------------|-----------|-3--------|-1---0----------|
A|-1-------3-4|-5----------|-----------|-3-------1--|----------3|----------|---------3---1--|
E|------------|------------|-----------|-----------3|-1---------|----------|----------------|



*******************

| / slide up
| \ slide down

*******************
Добавлено: 31.05.2018
Другие материалы по этой песне:
  • Аккорды и текст

Страница создана 08.03.2012
http://primanota.ru/james-taylor/bartenders-blues-chords.htm
Привет, Гость.
Предлагаем пройти революционный курс по гитаре.
Подарок от PrimaNota.Ru, забирай!