PrimaNota.ru - самый крупный в мире бесплатный архив песенных текстов, аккордов, табулатур и нот


James Reyne - Always The Way - таба, видео

Регистрация Запомнить меня
Войти через:  Facebook Google Twitter Vk Yandex Mail.ru

James Reyne - Always The Way - таба, видео

Печатать
Просмотров: 114
Уроки эстрадного вокала в Санкт-Петербурге
-------------------------------------------------------------------------------
                             Always the way- James Reyne
-------------------------------------------------------------------------------
Tabbed by: Mulga
E-mail: MulgaMcMulga@gmail.com

Tuning: Standard

Solo is by a guy called Jef Scott. This is the 1st Solo, still working on the 2nd :)

Verse  Em  A   

CHORUS D F#m F#m G


A    "and then along comes the day"

E----------9---12-----9-------------|
B--10--12---------12-----10---------|
G-----------------------------------|
D-----------------------------------|
A-----------------------------------|
E-----------------------------------|

E-----------------------------------|
B--/14--14vvvvvvvvvvvvvv------------|
G-----------------------------------|
D-----------------------------------|
A-----------------------------------|
E-----------------------------------|

E-----------------------------------|
B--14b(15)r14---------12vvvvv-------|
G-----------------------------------|
D-----------------------------------|
A-----------------------------------|
E-----------------------------------|

E-----------------------------------|
B---10--8--10vvv---------8-7-8vvv---|
G-----------------------------------|
D-----------------------------------|
A-----------------------------------|
E-----------------------------------|

E--2--------------------------------|
B-----5b(7)b-(7)b--(7)r-5-3h5---5---|
G-----------------------------------|
D-----------------------------------|
A-----------------------------------|
E-----------------------------------|


E-----------------------------------|
B--3h5p3---2h3/5/10-----------------|
G-----------------------------------|
D-----------------------------------|
A-----------------------------------|
E-----------------------------------|


E---------------------12--14--15----|
B-12---12b14r12---12----------------|
G-----------------------------------|
D-----------------------------------|
A-----------------------------------|
E-----------------------------------|


E--14h15p14--12--14--15--17---------|
B-----------------------------------|
G-----------------------------------|
D-----------------------------------|
A-----------------------------------|
E-----------------------------------|


E------17b19r17---15p14-------------|
B--15-------------------15--15/17---|
G-----------------------------------|
D-----------------------------------|
A-----------------------------------|
E-----------------------------------|


E-----------------------------------|
B--15h17p15--14h15--17--------------|
G-----------------------14----------|
D-----------------------------------|
A-----------------------------------|
E-----------------------------------|


E-----------------------------------|
B-----------------------------------|
G--12--14-14b15p12------------------|
D-----------------14----------------|
A-----------------------------------|
************************************

| /   slide up
| \   slide down
| h   hammer-on
| p   pull-off
| ~   vibrato
| +   harmonic
| x   Mute note
| b   Bend
| pb  Pre-bend
| br  Bend release
| pbr Pre-bend release
| brb Bend release bend

************************************
Добавлено: 27.10.2015
Вам также может быть интересно:
Другие материалы по этой песне:
  • Аккорды и текст

Страница создана 27.10.2015
http://primanota.ru/james-reyne/always-way-chords.htm
Привет, Гость.
Предлагаем пройти революционный курс по гитаре.
Подарок от PrimaNota.Ru, забирай!