PrimaNota.ru - самый крупный в мире бесплатный архив песенных текстов, аккордов, табулатур и нот


James Morrison - Person I Should Have Been Live - таба, видео

Регистрация Запомнить меня
Войти через:  Facebook Google Twitter Vk Yandex Mail.ru

James Morrison - Person I Should Have Been Live - таба, видео

Печатать
Просмотров: 139
Уроки эстрадного вокала в Санкт-Петербурге
Tabbed By Steve.R
You can listen to the Intro here to get the rythmn :
http://www.youtube.com/watch?v=utctkFb9ifw
______________________________________________________________________________
Capo 2nd Fret.

         Em               
E|-------------0----0-----0-----------|
B|----------------0----0-----0--------|
G|------------------------------------|
D|--------2---------------------------|
A|-----2------------------------------|
E|------------------------------------|    x4

     Am            F#m      Am
E|------0----|-----2------|-----0h2--3--2--0---0--|
B|--------1--|-------2----|---1--------------4----|
G|----2------|---2--------|-2---------------------|
D|--2--------|-4----------|-----------------------|
A|-----------|------------|-----------------------|
E|-----------|------------|-----------------------| x2

   Am             F#m       Am
E|------0----|------2----|-------0h2--3--3\5--3--2h3p0--|
B|----1---1--|----2---2--|----1-------------------------|
G|--2--------|--2--------|--2---------------------------|
D|-----------|-----------|------------------------------|
A|-----------|-----------|------------------------------|
E|-----------|-----------|------------------------------|

    Am          F#m
E|------0----|------2----|
B|----1---1--|----2---2--|
G|--2--------|--2--------|
D|-----------|-----------|
A|-----------|-----------|
E|-----------|-----------|  x2

    Em                 
E|--0--------------------0----|
B|----0---0--------------0----|
G|------0---0---0--0h2p0-0----|
D|------------2----------2----|
A|-----------------------2----|
E|-----------------------0----|
Добавлено: 29.03.2012
Другие материалы по этой песне:
  • Аккорды и текст

Страница создана 29.03.2012
http://primanota.ru/james-morrison/person-i-should-have-been-live-chords.htm
Привет, Гость.
Предлагаем пройти революционный курс по гитаре.
Подарок от PrimaNota.Ru, забирай!