PrimaNota.ru - самый крупный в мире бесплатный архив песенных текстов, аккордов, табулатур и нот


James Labrie - Undecided - таба, видео

Регистрация Запомнить меня
Войти через:  Facebook Google Twitter Vk Yandex Mail.ru

James Labrie - Undecided - таба, видео

Печатать
Просмотров: 255
Авторы музыки: Brian Wherry, Matt Guillory, James LaBrie
Авторы текста: James LaBrie
 
Artist: James Labrie
Song: Undecided
Album: Elements of Persuasion 
Tabbed by: Knightmare444

This is one of my favorite songs ever, so here it is.


Intro
  Q=100
    Gtr II
    <
  H H   s s s s s s s s s s s s s s s s   s s s s s s s s s s s s s s s s
|-----|---------------------------------|----------------------------------|
|---0-|-0-0-0-0-0-0-0-0-7-7-7-7-7-7-7-7-|-8-8-8-8-8-8-8-8-5-5-5-5-5-5-5-5--|
|-----|---------------------------------|----------------------------------|
|-----|---------------------------------|----------------------------------|
|-----|---------------------------------|----------------------------------|
|-----|---------------------------------|----------------------------------|
|
|   Gtr III
|   <                                     <
| H H                                     W
|-----|---------------------------------|----------------------------------|
|-----|---------------------------------|-5--------------------------------|
|---4-|---------------------------------|----------------------------------|
|---4-|---------------------------------|----------------------------------|
|-----|---------------------------------|----------------------------------|
|-----|---------------------------------|----------------------------------|


  s s s s s s s s s s s s s s s s   s s s s s s s s s s s s s S s s
|---------------------------------|-----------------------------------|
|-0-0-0-0-0-0-0-0-0-0-0-0-0-0-0-0-|-----------------------------------|
|---------------------------------|-5-5-5-5-5-5-5-5-2-2-2-2-2-2-2-2---|
|---------------------------------|-----------------------------------|
|---------------------------------|-----------------------------------|
|---------------------------------|-----------------------------------|
|
| W                                 H               H
|---------------------------------|-----------------------------------|
|-4-------------------------------|-5---------------1-----------------|
|-4-------------------------------|-5---------------2-----------------|
|-4-------------------------------|-5---------------2-----------------|
|---------------------------------|-----------------------------------|
|---------------------------------|-----------------------------------|


  Q=100
 4/4
  s  s s s s s s s s s s s s s s s   s s s s s s s s s s s s s s s s
|----------------------------------|----------------------------------|
|-0--0-0-0-0-0-0-0-7-7-7-7-7-7-7-7-|-8-8-8-8-8-8-8-8-5-5-5-5-5-5-5-5--|
|----------------------------------|----------------------------------|
|----------------------------------|----------------------------------|
|----------------------------------|----------------------------------|
|----------------------------------|----------------------------------|
|
| Gtr I
|        PM----|
| E.     S S S E   H                 W
|----------------------------------|----------------------------------|
|----------------------------------|----------------------------------|
|----------------------------------|----------------------------------|
|----------------------------------|----------------------------------|
|-2--------------------------------|----------------------------------|
|-2------2-2-2-2-------------------|----------------------------------|
|-0------0-0-0-0-------------------|----------------------------------|
|
| Gtr III
|----------------------------------|----------------------------------|
|----------------------------------|----------------------------------|
|----------------------------------|----------------------------------|
|----------------------------------|----------------------------------|
|----------------------------------|----------------------------------|
|----------------------------------|----------------------------------|


 4/4
  s  s s s s s s s s s s s s s s s   s s s s s s s s s s s s s S s s
|----------------------------------|----------------------------------|
|-0--0-0-0-0-0-0-0-0-0-0-0-0-0-0-0-|----------------------------------|
|----------------------------------|-5-5-5-5-5-5-5-5-2-2-2-2-2-2-2-2--|
|----------------------------------|----------------------------------|
|----------------------------------|----------------------------------|
|----------------------------------|----------------------------------|
|
| Gtr I
|                                                    <
|        PM--------------|
| E.     S S S E     E   E Q         H               H
|----------------------------------|----------------------------------|
|----------------------------------|-----------------5----------------|
|----------------------------------|-----------------5----------------|
|----------------------------------|-----------------5----------------|
|-2--------------------------------|----------------------------------|
|-2------2-2-2-2-----2---2---------|----------------------------------|
|-0------0-0-0-0-----0---0---------|----------------------------------|
|
| W                                  H               H
|----------------------------------|----------------------------------|
|-4--------------------------------|-5---------------1----------------|
|-4--------------------------------|-5---------------2----------------|
|-4--------------------------------|-5---------------2----------------|
|----------------------------------|----------------------------------|
|----------------------------------|----------------------------------|


   Pre-Verse
   4/4
    Gtr I
                     <                        <
         PM----|                 PM-----|
     Q   S S E  E  E Q       Q   S S  E E  E  Q
||------------------------|----------------------|
||-------------------5----|-------------------5--|
||o------------------5----|-------------------5--|
||-------------------5----|-------------------5--|
||o--2---------------3----|--2----------------3--|
||---2---2-2-2--2--0------|--2---2-2--2-2--0-----|
||---0---0-0-0--0--0------|--0---0-0--0-0--0-----|
|
|   Gtr IV
|    Q   Q      E  Q    E    Q   E    Q    E  Q
||------14--------15------|-14-------12----------|
||o-12---------12------12-|-----12--------10-13--|
||------11--------12------|-11--------9----------|
||---9----------9-------9-|------9---------7-10--|
||o-----------------------|----------------------|
||------------------------|----------------------|


                   <
       PM----|                 PM-------|       PM|
   Q   S S E  E  E Q       Q   S S  E E  E  S S S S
|-----------------------|----------------------------||-|
|------------------5----|----------------------------||-|
|------------------5----|---------------------------o||-|
|------------------5----|----------------------------||-|
|--2---------------3----|--2------------------------o||-|
|--2---2-2-2--2--0------|--2---2-2--2-2--2--3-2------||-|
|--0---0-0-0--0--0------|--0---0-0--0-0--0------5-3--||-|
|
|  Q   Q      E  Q    E    Q   E    Q    E  Q
|-----14--------15------|-14-------12----------------||-|
|-12---------12------12-|-----12--------10-13-------o||-|
|-----11--------12------|-11--------9----------------||-|
|--9----------9-------9-|------9---------7-10--------||-|
|-----------------------|---------------------------o||-|
|-----------------------|----------------------------||-|


  PM|   PM--|            PM--|   PM|   PM----|
  S S E S S S S +H       S S e E S e S e S S e
|----------------------|-----------------------|
|----------------------|-----------------------|
|----------------------|-----------------------|
|----------------------|-----------------------|
|-------------3-(3)----|-----------------------|
|-2-2-2-2-2-2-3-(3)----|-----------------------|
|-0-0-0-0-0-0-1-(1)----|-0-0-0---0-0---0-0-0-0-|


 Verse
  PM--|                 PM----|       PM--|       PM|          PM|
  S S S Q..             E   S S E     S S E   E   S e   E.     S S E
|-----------------------------------|----------------------------------|
|-----------------------------------|----------------------------------|
|-----------------------------------|----------------------------------|
|-----------------------------------|----------------------------------|
|-----------------------------------|----------------------------------|
|-2-2-2-----------------2---2-2-----|-2-2-2-------2-2----------2-2-----|
|-0-0-0-----------------0---0-0-----|-0-0-0-------0-0----------0-0-----|
|
| Gtr IV
| W                                   W
|-7---------------------------------|-8--------------------------------|
|-----------------------------------|----------------------------------|
|-----------------------------------|----------------------------------|
|-----------------------------------|----------------------------------|
|-----------------------------------|----------------------------------|
|-----------------------------------|----------------------------------|
|
| Gtr V
| S S S S   S S S S S S S S S S S S   S S S S S S S S S S  S S S S S S
|---7---5---------------------------|---7---5--------------------------|
|-------------5-7-8---7---5---7-5-7-|-----------5-7-8---7----5---7-5-7-|
|-4---4-----4-------4---4---4-------|-4---4---4-------4----4---4-------|
|-----------------------------------|----------------------------------|
|-----------------------------------|----------------------------------|
|-----------------------------------|----------------------------------|


   PM--|                 PM----|        PM--|       PM|          PM|
   S S S Q..             E   S S E      S S E   E   S e   E.     S S E
|------------------------------------|--------------------------------------|
|------------------------------------|--------------------------------------|
|------------------------------------|--------------------------------------|
|------------------------------------|--------------------------------------|
|------------------------------------|--------------------------------------|
|--2-2-2-----------------2---2-2-----|--2-2-2-------2-2----------2-2--------|
|--0-0-0-----------------0---0-0-----|--0-0-0-------0-0----------0-0--------|
|
|  W                                    W
|-11---------------------------------|-12-----------------------------------|
|------------------------------------|--------------------------------------|
|------------------------------------|--------------------------------------|
|------------------------------------|--------------------------------------|
|------------------------------------|--------------------------------------|
|------------------------------------|--------------------------------------|
|
|  S S S S   S S S S S S S S S S S S    S S S S S S S S S S  S S S S S S
|----7---5---------------------------|----7---5-----------------------------|
|--------------5-7-8---7---5---7-5-7-|------------5-7-8---7----5---7-5-7----|
|--4---4-----4-------4---4---4-------|--4---4---4-------4----4---4----------|
|------------------------------------|--------------------------------------|
|------------------------------------|--------------------------------------|
|------------------------------------|--------------------------------------|


  PM--|       PM|     PM----------------|       PM|     PM-----------
  S S E   E   S e   S e   S S e     S S E   E   S e   S e   S S e
|---------------------------------|---------------------------------|
|---------------------------------|---------------------------------|
|---------------------------------|---------------------------------|
|---------------------------------|---------------------------------|
|---------------------------------|---------------------------------|
|-2-2-2-------2-2-----2---2-2-2---|-2-2-2-------2-2-----2---2-2-2---|
|-0-0-0-------0-0-----0---0-0-0---|-0-0-0-------0-0-----0---0-0-0---|
|
| >
| H
|-7-------------------------------|---------------------------------|
|---------------------------------|---------------------------------|
|---------------------------------|---------------------------------|
|---------------------------------|---------------------------------|
|---------------------------------|---------------------------------|
|---------------------------------|---------------------------------|
|
| S S S S S S S S S S S S S S S S   S S S S S S S S S S S S S S S S
|---7---5-------------------------|---7---5-------------------------|
|-----------5-7-8---7---5---7-5-7-|-----------5-7-8---7---5---7-5-7-|
|-4---4---4-------4---4---4-------|-4---4---4-------4---4---4-------|
|---------------------------------|---------------------------------|
|---------------------------------|---------------------------------|
|---------------------------------|---------------------------------|


 -----|       PM|     PM----------------|       PM|     PM------|
  S S E   E   S e   S e   S S e     S S E   E   S e   S e   S S e
|---------------------------------|------------------------------------|
|---------------------------------|------------------------------------|
|---------------------------------|------------------------------------|
|---------------------------------|------------------------------------|
|---------------------------------|------------------------------------|
|-2-2-2-------2-2-----2---2-2-2---|-2-2-2-------2-2-----2---2-2-2------|
|-0-0-0-------0-0-----0---0-0-0---|-0-0-0-------0-0-----0---0-0-0------|
|
|---------------------------------|------------------------------------|
|---------------------------------|------------------------------------|
|---------------------------------|------------------------------------|
|---------------------------------|------------------------------------|
|---------------------------------|------------------------------------|
|---------------------------------|------------------------------------|
|
| S S S S S S S S S S S S S S S S   S S S S S S S S S S S S S S S S
|---7---5-------------------------|---7---5----------------------------|
|-----------5-7-8---7---5---7-5-7-|-----------5-7-8---7---5---7-5-7----|
|-4---4---4-------4---4---4-------|-4---4---4-------4---4---4----------|
|---------------------------------|------------------------------------|
|---------------------------------|------------------------------------|
|---------------------------------|------------------------------------|


 Pre-Chorus
  $
               <                 <                 <
     PM----|           PM----|           PM----|           PM------|     PM|
  Q  S S E E E Q    Q  S S E E E Q    Q  S S E E E Q    Q  S S E E E S S S S
|-----------------|-----------------|-----------------|----------------------|
|--------------5--|--------------5--|--------------5--|----------------------|
|--------------5--|--------------5--|--------------5--|----------------------|
|--------------5--|--------------5--|--------------5--|----------------------|
|-2------------3--|-2------------3--|-2------------3--|-2--------------------|
|-2--2-2-2-2-0----|-2--2-2-2-2-0----|-2--2-2-2-2-0----|-2--2-2-2-2-2-3-2-----|
|-0--0-0-0-0-0----|-0--0-0-0-0-0----|-0--0-0-0-0-0----|-0--0-0-0-0-0-----5-3-|


     PM----|   PM--|
  Q  S S E E E e S S   E. S S S Q.
|--------------------|---------------|
|--------------------|---------------|
|--------------------|---------------|
|--------------------|-4--------7----|
|-2------------------|-2--------7----|
|-2--2-2-2-2-0-2-2-2-|-2--2-2-2-5----|
|-0--0-0-0-0-0-0-0-0-|-0--0-0-0-5----|


            PM--|                    PM--------|
  Q  Q.   E S S E E E    H    H      S S E S S S S +H
|----------------------|-----------|----------------------|
|----------------------|-----------|----------------------|
|----------------------|-----------|----------------------|
|-5--4----5------------|------5----|----------------------|
|-5--4----5-------3-2--|-7----5----|-------------3-(3)----|
|-3--2----3-2-2-2-3-2--|-7----3----|-2-2-2-2-2-2-3-(3)----|
|-3--2------0-0-0-1-0--|-5----3----|-0-0-0-0-0-0-1-(1)----|


 Chorus
     PM------------------|       PM------------------|
  E. S S S S S S S E e S S    E. S S S S S S S E e S S
|--------------------------|---------------------------|
|--------------------------|---------------------------|
|--------------------------|---------------------------|
|--------------------------|---------------------------|
|-2------------------------|--2------------------------|
|-2--2-2-2-2-2-2-2-2-2-2-2-|--2--2-2-2-2-2-2-2-2-2-2-2-|
|-0--0-0-0-0-0-0-0-0-0-0-0-|--0--0-0-0-0-0-0-0-0-0-0-0-|
|
| Gtr IV
| W                          +W
|--------------------------|---------------------------|
|-4------------------------|-(4)-----------------------|
|-4------------------------|-(4)-----------------------|
|--------------------------|---------------------------|
|--------------------------|---------------------------|
|--------------------------|---------------------------|


     PM------------------|      PM------------------|
  E. S S S S S S S E e S S   E. S S S S S S S E e S S
|--------------------------|-----------------------------|
|--------------------------|-----------------------------|
|--------------------------|-----------------------------|
|--------------------------|-----------------------------|
|-2------------------------|-2---------------------------|
|-2--2-2-2-2-2-2-2-2-2-2-2-|-2--2-2-2-2-2-2-2-2-2-2-2----|
|-0--0-0-0-0-0-0-0-0-0-0-0-|-0--0-0-0-0-0-0-0-0-0-0-0----|
|
| W                          H            Q     Q
|--------------------------|-----------------------------|
|-5------------------------|-8------------7-----5--------|
|-5------------------------|-9------------7-----5--------|
|--------------------------|-----------------------------|
|--------------------------|-----------------------------|
|--------------------------|-----------------------------|


     PM------------------|       PM------------------|
  E. S S S S S S S E e S S    E. S S S S S S S E e S S
|--------------------------|---------------------------|
|--------------------------|---------------------------|
|--------------------------|---------------------------|
|--------------------------|---------------------------|
|-2------------------------|--2------------------------|
|-2--2-2-2-2-2-2-2-2-2-2-2-|--2--2-2-2-2-2-2-2-2-2-2-2-|
|-0--0-0-0-0-0-0-0-0-0-0-0-|--0--0-0-0-0-0-0-0-0-0-0-0-|
|
| W                          +W
|--------------------------|---------------------------|
|-4------------------------|-(4)-----------------------|
|-4------------------------|-(4)-----------------------|
|--------------------------|---------------------------|
|--------------------------|---------------------------|
|--------------------------|---------------------------|


                                                         To Coda
     PM----------------------------|
                                        |-3-| |-3-| |-3-| |-3-|
  E. S S S S S S S E e S S   S S S S Q  S S S S S S S S S S S S
|--------------------------|--------------------------------------|
|--------------------------|--------------------------------------|
|--------------------------|--------------------------------------|
|--------------------------|--------------------------------------|
|-2------------------------|---------7--------------2---0---------|
|-2--2-2-2-2-2-2-2-2-2-2-2-|-7-7-7-7-7--------0-2-3---3-----------|
|-0--0-0-0-0-0-0-0-0-0-0-0-|-5-5-5-5-5--0-2-3-------------3-2-0---|
|
| W                          W
|--------------------------|--------------------------------------|
|-3------------------------|-2------------------------------------|
|-4------------------------|-2------------------------------------|
|--------------------------|--------------------------------------|
|--------------------------|--------------------------------------|
|--------------------------|--------------------------------------|


 Verse
  PM--|                 PM----|       PM--|       PM|          PM|
  S S S Q..             E   S S E     S S E   E   S e   E.     S S E
|-----------------------------------|----------------------------------|
|-----------------------------------|----------------------------------|
|-----------------------------------|----------------------------------|
|-----------------------------------|----------------------------------|
|-----------------------------------|----------------------------------|
|-2-2-2-----------------2---2-2-----|-2-2-2-------2-2----------2-2-----|
|-0-0-0-----------------0---0-0-----|-0-0-0-------0-0----------0-0-----|
|
| Gtr IV
|                                     >
| W                                   W
|-7---------------------------------|-8--------------------------------|
|-----------------------------------|----------------------------------|
|-----------------------------------|----------------------------------|
|-----------------------------------|----------------------------------|
|-----------------------------------|----------------------------------|
|-----------------------------------|----------------------------------|
|
| Gtr V
| S S S S   S S S S S S S S S S S S   S S S S S S S S S S  S S S S S S
|---7---5---------------------------|---7---5--------------------------|
|-------------5-7-8---7---5---7-5-7-|-----------5-7-8---7----5---7-5-7-|
|-4---4-----4-------4---4---4-------|-4---4---4-------4----4---4-------|
|-----------------------------------|----------------------------------|
|-----------------------------------|----------------------------------|
|-----------------------------------|----------------------------------|


  PM--|       PM|     PM----------------|       PM|     PM------|
  S S E   E   S e   S e   S S e     S S E   E   S e   S e   S S e
|---------------------------------|------------------------------------|
|---------------------------------|------------------------------------|
|---------------------------------|------------------------------------|
|---------------------------------|------------------------------------|
|---------------------------------|------------------------------------|
|-2-2-2-------2-2-----2---2-2-2---|-2-2-2-------2-2-----2---2-2-2------|
|-0-0-0-------0-0-----0---0-0-0---|-0-0-0-------0-0-----0---0-0-0------|
|
|---------------------------------|------------------------------------|
|---------------------------------|------------------------------------|
|---------------------------------|------------------------------------|
|---------------------------------|------------------------------------|
|---------------------------------|------------------------------------|
|---------------------------------|------------------------------------|
|
| S S S S S S S S S S S S S S S S   S S S S S S S S S S S S S S S S
|---7---5-------------------------|---7---5----------------------------|
|-----------5-7-8---7---5---7-5-7-|-----------5-7-8---7---5---7-5-7----|
|-4---4---4-------4---4---4-------|-4---4---4-------4---4---4----------|
|---------------------------------|------------------------------------|
|---------------------------------|------------------------------------|
|---------------------------------|------------------------------------|


  PM--|       PM|     PM----------------|       PM|     PM-----------
  S S E   E   S e   S e   S S e     S S E   E   S e   S e   S S e
|---------------------------------|---------------------------------|
|---------------------------------|---------------------------------|
|---------------------------------|---------------------------------|
|---------------------------------|---------------------------------|
|---------------------------------|---------------------------------|
|-2-2-2-------2-2-----2---2-2-2---|-2-2-2-------2-2-----2---2-2-2---|
|-0-0-0-------0-0-----0---0-0-0---|-0-0-0-------0-0-----0---0-0-0---|
|
| Gtr V
| S S S S S S S S S S S S S S S S   S S S S S S S S S S S S S S S S
|---7---5-------------------------|---7---5-------------------------|
|-----------5-7-8---7---5---7-5-7-|-----------5-7-8---7---5---7-5-7-|
|-4---4---4-------4---4---4-------|-4---4---4-------4---4---4-------|
|---------------------------------|---------------------------------|
|---------------------------------|---------------------------------|
|---------------------------------|---------------------------------|


                                                           D.S. al Coda
 -----|       PM|     PM----------------|       PM------|   PM  PM
  S S E   E   S e   S e   S S e     S S E   E   S e     S S S S S S S
|---------------------------------|--------------------------------------|
|---------------------------------|--------------------------------------|
|---------------------------------|--------------------------------------|
|---------------------------------|--------------------------------------|
|---------------------------------|--------------------------------------|
|-2-2-2-------2-2-----2---2-2-2---|-2-2-2-------2-2-------8---7---8-7----|
|-0-0-0-------0-0-----0---0-0-0---|-0-0-0-------0-0-----0---0---0--------|
|
| S S S S S S S S S S S S S S S S   S S S S S S S S S S S S S S S S
|---7---5-------------------------|---7---5------------------------------|
|-----------5-7-8---7---5---7-5-7-|-----------5-7-8---7---5---7-5-7------|
|-4---4---4-------4---4---4-------|-4---4---4-------4---4---4------------|
|---------------------------------|--------------------------------------|
|---------------------------------|--------------------------------------|
|---------------------------------|--------------------------------------|


  &
     PM------------------|       PM------------------|
  E. S S S S S S S E e S S    E. S S S S S S S E e S S
|--------------------------|---------------------------|
|--------------------------|---------------------------|
|--------------------------|---------------------------|
|--------------------------|---------------------------|
|-2------------------------|--2------------------------|
|-2--2-2-2-2-2-2-2-2-2-2-2-|--2--2-2-2-2-2-2-2-2-2-2-2-|
|-0--0-0-0-0-0-0-0-0-0-0-0-|--0--0-0-0-0-0-0-0-0-0-0-0-|
|
| Gtr IV
| W                          +W
|--------------------------|---------------------------|
|-4------------------------|-(4)-----------------------|
|-4------------------------|-(4)-----------------------|
|--------------------------|---------------------------|
|--------------------------|---------------------------|
|--------------------------|---------------------------|


     PM------------------|      PM------------------|
  E. S S S S S S S E e S S   E. S S S S S S S E e S S
|--------------------------|-----------------------------|
|--------------------------|-----------------------------|
|--------------------------|-----------------------------|
|--------------------------|-----------------------------|
|-2------------------------|-2---------------------------|
|-2--2-2-2-2-2-2-2-2-2-2-2-|-2--2-2-2-2-2-2-2-2-2-2-2----|
|-0--0-0-0-0-0-0-0-0-0-0-0-|-0--0-0-0-0-0-0-0-0-0-0-0----|
|
| W                          H            Q     Q
|--------------------------|-----------------------------|
|-5------------------------|-8------------7-----5--------|
|-5------------------------|-9------------7-----5--------|
|--------------------------|-----------------------------|
|--------------------------|-----------------------------|
|--------------------------|-----------------------------|


     PM------------------|       PM------------------|
  E. S S S S S S S E e S S    E. S S S S S S S E e S S
|--------------------------|---------------------------|
|--------------------------|---------------------------|
|--------------------------|---------------------------|
|--------------------------|---------------------------|
|-2------------------------|--2------------------------|
|-2--2-2-2-2-2-2-2-2-2-2-2-|--2--2-2-2-2-2-2-2-2-2-2-2-|
|-0--0-0-0-0-0-0-0-0-0-0-0-|--0--0-0-0-0-0-0-0-0-0-0-0-|
|
| W                          +W
|--------------------------|---------------------------|
|-4------------------------|-(4)-----------------------|
|-4------------------------|-(4)-----------------------|
|--------------------------|---------------------------|
|--------------------------|---------------------------|
|--------------------------|---------------------------|


     PM----------------------------|
                                        |-3-| |-3-| |-3-| |-3-|
  E. S S S S S S S E e S S   S S S S Q  S S S S S S S S S S S S
|--------------------------|--------------------------------------|
|--------------------------|--------------------------------------|
|--------------------------|--------------------------------------|
|--------------------------|--------------------------------------|
|-2------------------------|---------7--------------2---0---------|
|-2--2-2-2-2-2-2-2-2-2-2-2-|-7-7-7-7-7--------0-2-3---3-----------|
|-0--0-0-0-0-0-0-0-0-0-0-0-|-5-5-5-5-5--0-2-3-------------3-2-0---|
|
| W                          W
|--------------------------|--------------------------------------|
|-3------------------------|-2------------------------------------|
|-4------------------------|-2------------------------------------|
|--------------------------|--------------------------------------|
|--------------------------|--------------------------------------|
|--------------------------|--------------------------------------|


 Guitar Solo
  PM--|   PM|   PM------------|   PM|   PM----|
  S S E E S e S e S S e   S S E E S e S e S S e
|-----------------------|-----------------------|
|-----------------------|-----------------------|
|-----------------------|-----------------------|
|-----------------------|-----------------------|
|-2-3-2---2-3---2-2-3-2-|-2-3-2---2-3---2-2-3-2-|
|-0-1-0---0-1---0-0-1-0-|-0-1-0---0-1---0-0-1-0-|
|-----------------------|-----------------------|


  PM--|   PM|   PM-------------------|
  S S E E S e S e S S e   S S e  S S S S +H
|-----------------------|----------------------|
|-----------------------|----------------------|
|-----------------------|----------------------|
|-----------------------|--------------3-(3)---|
|-2-3-2---2-3---2-2-3-2-|-2-3-2--2-2-2-3-(3)---|
|-0-1-0---0-1---0-0-1-0-|-0-1-0--0-0-0-1-(1)---|
|-----------------------|----------------------|


  PM--|   PM|   PM------------|   PM|   PM----|
  S S E E S e S e S S e   S S E E S e S e S S e
|-----------------------|-----------------------|
|-----------------------|-----------------------|
|-----------------------|-----------------------|
|-----------------------|-----------------------|
|-2-3-2---2-3---2-2-3-2-|-2-3-2---2-3---2-2-3-2-|
|-0-1-0---0-1---0-0-1-0-|-0-1-0---0-1---0-0-1-0-|
|-----------------------|-----------------------|


  PM--|   PM|   PM------------------|
  S S E E S e S e S S e   S S e S S S S +H
|-----------------------|----------------------|
|-----------------------|----------------------|
|-----------------------|----------------------|
|-----------------------|-------------3-(3)----|
|-2-3-2---2-3---2-2-3-2-|-2-3-2-2-2-2-3-(3)----|
|-0-1-0---0-1---0-0-1-0-|-0-1-0-0-0-0-1-(1)----|
|-----------------------|----------------------|


  PM--|   PM|   PM------------|   PM|   PM-------
  S S E E S e S e S S e   S S E E S e S e S S e
|-----------------------|-----------------------|
|-----------------------|-----------------------|
|-----------------------|-----------------------|
|-----------------------|-----------------------|
|-----------------------|-----------------------|
|-2-3-2---2-3---2-2-3-2-|-2-3-2---2-3---2-2-3-2-|
|-0-1-0---0-1---0-0-1-0-|-0-1-0---0-1---0-0-1-0-|


 -----|   PM|   PM------------------|
  S S E E S e S e S S e   S S E S S S S +H
|-----------------------|----------------------|
|-----------------------|----------------------|
|-----------------------|----------------------|
|-----------------------|----------------------|
|-----------------------|-------------3-(3)----|
|-2-3-2---2-3---2-2-3-2-|-2-3-2-2-2-2-3-(3)----|
|-0-1-0---0-1---0-0-1-0-|-0-1-0-0-0-0-1-(1)----|


  PM--|   PM|   PM------------|   PM|   PM-------
  S S E E S e S e S S e   S S E E S e S e S S e
|-----------------------|-----------------------|
|-----------------------|-----------------------|
|-----------------------|-----------------------|
|-----------------------|-----------------------|
|-----------------------|-----------------------|
|-2-3-2---2-3---2-2-3-2-|-2-3-2---2-3---2-2-3-2-|
|-0-1-0---0-1---0-0-1-0-|-0-1-0---0-1---0-0-1-0-|


 -----|   PM|   PM------------------|
  S S E E S e S e S S e   S S E S S S S +H
|-----------------------|----------------------|
|-----------------------|----------------------|
|-----------------------|----------------------|
|-----------------------|----------------------|
|-----------------------|-------------3-(3)----|
|-2-3-2---2-3---2-2-3-2-|-2-3-2-2-2-2-3-(3)----|
|-0-1-0---0-1---0-0-1-0-|-0-1-0-0-0-0-1-(1)----|


 Chorus
     PM----------------------|       PM----------------------|
                   |-3-|                           |-3-|
  E. S S S S S S S S S S e S S    E. S S S S S S S S S S e S S
|------------------------------|-------------------------------|
|------------------------------|-------------------------------|
|------------------------------|-------------------------------|
|------------------------------|-------------------------------|
|-2----------------------------|--2----------------------------|
|-2--2-2-2-2-2-2-2-2-2-2-2-2-2-|--2--2-2-2-2-2-2-2-2-2-2-2-2-2-|
|-0--0-0-0-0-0-0-0-0-0-0-0-0-0-|--0--0-0-0-0-0-0-0-0-0-0-0-0-0-|
|
| Gtr IV
| W                              +W
|------------------------------|-------------------------------|
|-4----------------------------|-(4)---------------------------|
|-4----------------------------|-(4)---------------------------|
|------------------------------|-------------------------------|
|------------------------------|-------------------------------|
|------------------------------|-------------------------------|


     PM----------------------|      PM----------------------|
                   |-3-|                          |-3-|
  E. S S S S S S S S S S e S S   E. S S S S S S S S S S e S S
|------------------------------|------------------------------|
|------------------------------|------------------------------|
|------------------------------|------------------------------|
|------------------------------|------------------------------|
|-2----------------------------|-2----------------------------|
|-2--2-2-2-2-2-2-2-2-2-2-2-2-2-|-2--2-2-2-2-2-2-2-2-2-2-2-2-2-|
|-0--0-0-0-0-0-0-0-0-0-0-0-0-0-|-0--0-0-0-0-0-0-0-0-0-0-0-0-0-|
|
| W                              H            Q         Q
|------------------------------|------------------------------|
|-5----------------------------|-8------------7---------5-----|
|-5----------------------------|-9------------7---------5-----|
|------------------------------|------------------------------|
|------------------------------|------------------------------|
|------------------------------|------------------------------|


     PM----------------------|       PM----------------------|
                   |-3-|                           |-3-|
  E. S S S S S S S S S S e S S    E. S S S S S S S S S S e S S
|------------------------------|-------------------------------|
|------------------------------|-------------------------------|
|------------------------------|-------------------------------|
|------------------------------|-------------------------------|
|-2----------------------------|--2----------------------------|
|-2--2-2-2-2-2-2-2-2-2-2-2-2-2-|--2--2-2-2-2-2-2-2-2-2-2-2-2-2-|
|-0--0-0-0-0-0-0-0-0-0-0-0-0-0-|--0--0-0-0-0-0-0-0-0-0-0-0-0-0-|
|
| W                              +W
|------------------------------|-------------------------------|
|-4----------------------------|-(4)---------------------------|
|-4----------------------------|-(4)---------------------------|
|------------------------------|-------------------------------|
|------------------------------|-------------------------------|
|------------------------------|-------------------------------|


                                                             To Coda
     PM--------------------------------|
                   |-3-|                    |-3-| |-3-| |-3-| |-3-|
  E. S S S S S S S S S S e S S   S S S S Q  S S S S S S S S S S S S
|------------------------------|--------------------------------------|
|------------------------------|--------------------------------------|
|------------------------------|--------------------------------------|
|------------------------------|--------------------------------------|
|-2----------------------------|---------7--------------2---0---------|
|-2--2-2-2-2-2-2-2-2-2-2-2-2-2-|-7-7-7-7-7--------0-2-3---3-----------|
|-0--0-0-0-0-0-0-0-0-0-0-0-0-0-|-5-5-5-5-5--0-2-3-------------3-2-0---|
|
| W                              W
|------------------------------|--------------------------------------|
|-3----------------------------|-2------------------------------------|
|-4----------------------------|-2------------------------------------|
|------------------------------|--------------------------------------|
|------------------------------|--------------------------------------|
|------------------------------|--------------------------------------|


 Outro
  PM|   PM--|
  S S E S S S S +H       S S Q  S S Q  S S E   Q
|----------------------|---------------------|------|
|----------------------|---------------------|------|
|----------------------|---------------------|------|
|----------------------|---------------------|------|
|-------------3-(3)----|-2-2----2-2----2-2---|-2----|
|-2-2-2-2-2-2-3-(3)----|-2-2----2-2----2-2---|-2----|
|-0-0-0-0-0-0-1-(1)----|-0-0----0-0----0-0---|-0----|
Добавлено: 03.04.2012
Другие материалы по этой песне:
  • Аккорды и текст

Страница создана 03.04.2012
http://primanota.ru/james-labrie/undecided-chords.htm
Привет, Гость.
Предлагаем пройти революционный курс по гитаре.
Подарок от PrimaNota.Ru, забирай!