PrimaNota.ru - самый крупный в мире бесплатный архив песенных текстов, аккордов, табулатур и нот


James Labrie - Pretender - таба, видео

Регистрация Запомнить меня
Войти через:  Facebook Google Twitter Vk Yandex Mail.ru

James Labrie - Pretender - таба, видео

Печатать
Просмотров: 137
Авторы музыки: Brian Wherry, Matt Guillory, James LaBrie
Авторы текста: James LaBrie
James Labrie Pretender                                     

mangolord@gmail.com

INTRO + VERSE 1

         PM PM PM PM     PM PM PM PM     PM PM  
   {    
E||--------------------------------------------|
B||--------------------------------------------|
G||--------------------------------------------|
D||--------------------------------------------|
A||--2-4-------------2-4-------------2-4-------|
E||--2-4-4--4--4--4--2-4-4--4--4--4--2-4-4--4--|
B||--0-2-2--2--2--2--0-2-2--2--2--2--0-2-2--2--|
  
       PM PM PM PM     PM PM PM PM     PM PM  
    
  --------------------------------------------|
  --------------------------------------------|
  --------------------------------------------|
  --------------------------------------------|
  --2-4-------------2-4-------------2-4-------|
  --2-4-4--4--4--4--2-4-4--4--4--4--2-4-4--4--|
  --0-2-2--2--2--2--0-2-2--2--2--2--0-2-2--2--|

       PM PM PM PM     PM PM PM PM     PM PM  
    
  --------------------------------------------|
  --------------------------------------------|
  --------------------------------------------|
  --------------------------------------------|
  --2-4-------------2-4-------------2-4-------|
  --2-4-4--4--4--4--2-4-4--4--4--4--2-4-4--4--|
  --0-2-2--2--2--2--0-2-2--2--2--2--0-2-2--2--|

        PM PM PM PM PM PM PM PM PM PM PM PM PM PM  
                                                  }
  ------------------------------------------------|
  ------------------------------------------------|
  ------------------------------------------------|
  ------------------------------------------------|
  --2-4-------------------------------------------|
  --2-4-------------------------------------------|
  --0-2-2--2--2--2--2--2--5--5--5--5--0--0--0--0--|  x6

              
  ---------------------|--------------------|
  ---------------------|--------------------|
  ---------------------|--------------------|
  ------------9--------|-----------9--------|
  --2------2--9--------|-----------9--------|
  --2------2--7--------|-----------7--------|
  --0------0--0--------|-----------0--------| 

       PM PM PM PM     PM PM PM PM     PM PM  
    
  --------------------------------------------|
  --------------------------------------------|
  --------------------------------------------|
  --------------------------------------------|
  --2-4-------------2-4-------------2-4-------|
  --2-4-4--4--4--4--2-4-4--4--4--4--2-4-4--4--|
  --0-2-2--2--2--2--0-2-2--2--2--2--0-2-2--2--|

        PM PM PM PM PM PM PM PM PM PM PM PM PM PM  
  
  ------------------------------------------------|
  ------------------------------------------------|
  ------------------------------------------------|
  ------------------------------------------------|
  --2-4-------------------------------------------|
  --2-4-------------------------------------------|
  --0-2-2--2--2--2--2--2--5--5--5--5--0--0--0--0--|

  ---------------------|--------------------|
  ---------------------|--------------------|
  ---------------------|--------------------|
  ------------9--------|-----------9--------|
  --2------2--9--------|-----------9--------|
  --2------2--7--------|-----------7--------|
  --0------0--0--------|-----------0--------|
                                              
  ---------------------|--------------------|
  ---------------------|--------------------|
  --7------------------|--------------------|
  --7------------------|--7-----------------|
  --5------------------|--7-----------------|
  ---------------------|--5-----------------|

  CHORUS

                              PM PM PM PM   
{        
|----------------------|------------------------------|--------------------
|----------------------|------------------------------|--------------------
|----------------------|------------------------------|--------------------
|----------------------|------------------------------|--7------7--7--9--4-
|--4--------2--4--4----|---------------------4--------|--7------7--7--9--4-
|--4--------2--4--4----|------4--4--4--4--2--4--4--2--|--5------5--5--7--2-
|--2--------0--2--2----|------2--2--2--2--0--2--2--0--|--------------------


       PM PM PM PM      PM PM PM PM    
                                         }
  -------------------------------------||
  -------------------------------------||
  -------------------------------------||
  -------------------4-----------------||
  -------4--4--4--4--4----4--4--4--4---||
  -------2--2--2--2--2----2--2--2--2---||
  -------------------------------------|| x4


      PM PM PM PM     PM PM PM PM     PM PM  
    
  --------------------------------------------|
  --------------------------------------------|
  --------------------------------------------|
  --------------------------------------------|
  --2-4-------------2-4-------------2-4-------|
  --2-4-4--4--4--4--2-4-4--4--4--4--2-4-4--4--|
  --0-2-2--2--2--2--0-2-2--2--2--2--0-2-2--2--|

  VERSE 2  

       PM PM PM PM     PM PM PM PM     PM PM  
  {     
  --------------------------------------------|
  --------------------------------------------|
  --------------------------------------------|
  --------------------------------------------|
  --2-4-------------2-4-------------2-4-------|
  --2-4-4--4--4--4--2-4-4--4--4--4--2-4-4--4--|
  --0-2-2--2--2--2--0-2-2--2--2--2--0-2-2--2--|
  
       PM PM PM PM     PM PM PM PM     PM PM  
    
  --------------------------------------------|
  --------------------------------------------|
  --------------------------------------------|
  --------------------------------------------|
  --2-4-------------2-4-------------2-4-------|
  --2-4-4--4--4--4--2-4-4--4--4--4--2-4-4--4--|
  --0-2-2--2--2--2--0-2-2--2--2--2--0-2-2--2--|

       PM PM PM PM     PM PM PM PM     PM PM  
    
  --------------------------------------------|
  --------------------------------------------|
  --------------------------------------------|
  --------------------------------------------|
  --2-4-------------2-4-------------2-4-------|
  --2-4-4--4--4--4--2-4-4--4--4--4--2-4-4--4--|
  --0-2-2--2--2--2--0-2-2--2--2--2--0-2-2--2--|

        PM PM PM PM PM PM PM PM PM PM PM PM PM PM  
                                                   }
  ------------------------------------------------|
  ------------------------------------------------|
  ------------------------------------------------|
  ------------------------------------------------|
  --2-4-------------------------------------------|
  --2-4-------------------------------------------|
  --0-2-2--2--2--2--2--2--5--5--5--5--0--0--0--0--|  x4
   
  ---------------------|--------------------|
  ---------------------|--------------------|
  ---------------------|--------------------|
  ------------9--------|-----------9--------|
  --2------2--9--------|-----------9--------|
  --2------2--7--------|-----------7--------|
  --0------0--0--------|-----------0--------| 

        PM PM PM PM     PM PM PM PM     PM PM  
    
  --------------------------------------------|
  --------------------------------------------|
  --------------------------------------------|
  --------------------------------------------|
  --2-4-------------2-4-------------2-4-------|
  --2-4-4--4--4--4--2-4-4--4--4--4--2-4-4--4--|
  --0-2-2--2--2--2--0-2-2--2--2--2--0-2-2--2--|

        PM PM PM PM PM PM PM PM PM PM PM PM PM PM  
  
  ------------------------------------------------|
  ------------------------------------------------|
  ------------------------------------------------|
  ------------------------------------------------|
  --2-4-------------------------------------------|
  --2-4-------------------------------------------|
  --0-2-2--2--2--2--2--2--5--5--5--5--0--0--0--0--|

  ---------------------|--------------------|
  ---------------------|--------------------|
  ---------------------|--------------------|
  ------------9--------|-----------9--------|
  --2------2--9--------|-----------9--------|
  --2------2--7--------|-----------7--------|
  --0------0--0--------|-----------0--------|
                                              
  ---------------------|--------------------|
  ---------------------|--------------------|
  --7------------------|--------------------|
  --7------------------|--7-----------------|
  --5------------------|--7-----------------|
  ---------------------|--5-----------------|

  CHORUS

                              PM PM PM PM   
{        
|----------------------|------------------------------|--------------------
|----------------------|------------------------------|--------------------
|----------------------|------------------------------|--------------------
|----------------------|------------------------------|--7------7--7--9--4-
|--4--------2--4--4----|---------------------4--------|--7------7--7--9--4-
|--4--------2--4--4----|------4--4--4--4--2--4--4--2--|--5------5--5--7--2-
|--2--------0--2--2----|------2--2--2--2--0--2--2--0--|--------------------


       PM PM PM PM      PM PM PM PM    
                                         }
  -------------------------------------||
  -------------------------------------||
  -------------------------------------||
  -------------------4-----------------||
  -------4--4--4--4--4----4--4--4--4---||
  -------2--2--2--2--2----2--2--2--2---||
  -------------------------------------|| x4
    
  SOLO RIFF

        PM PM PM PM     PM PM PM PM     PM PM  
    
  --------------------------------------------|
  --------------------------------------------|
  --------------------------------------------|
  --------------------------------------------|
  --2-4-------------2-4-------------2-4-------|
  --2-4-4--4--4--4--2-4-4--4--4--4--2-4-4--4--|
  --0-2-2--2--2--2--0-2-2--2--2--2--0-2-2--2--| x20

        PM PM PM PM PM PM PM PM PM PM PM PM PM PM  
  
  ------------------------------------------------|
  ------------------------------------------------|
  ------------------------------------------------|
  ------------------------------------------------|
  --2-4-------------------------------------------|
  --2-4-------------------------------------------|
  --0-2-2--2--2--2--2--2--5--5--5--5--0--0--0--0--|

  VERSE 3

          PM PM PM PM     PM PM PM PM     PM PM  
    
  --------------------------------------------|
  --------------------------------------------|
  --------------------------------------------|
  --------------------------------------------|
  --2-4-------------2-4-------------2-4-------|
  --2-4-4--4--4--4--2-4-4--4--4--4--2-4-4--4--|
  --0-2-2--2--2--2--0-2-2--2--2--2--0-2-2--2--|

        PM PM PM PM PM PM PM PM PM PM PM PM PM PM  
  
  ------------------------------------------------|
  ------------------------------------------------|
  ------------------------------------------------|
  ------------------------------------------------|
  --2-4-------------------------------------------|
  --2-4-------------------------------------------|
  --0-2-2--2--2--2--2--2--5--5--5--5--0--0--0--0--| x4

  PIANO BREAK

                             PM PM PM PM   
{        
|----------------------|------------------------------|--------------------
|----------------------|------------------------------|--------------------
|----------------------|------------------------------|--------------------
|----------------------|------------------------------|--7------7--7--9--4-
|--4--------2--4--4----|---------------------4--------|--7------7--7--9--4-
|--4--------2--4--4----|------4--4--4--4--2--4--4--2--|--5------5--5--7--2-
|--2--------0--2--2----|------2--2--2--2--0--2--2--0--|--------------------


       PM PM PM PM      PM PM PM PM    
                                         }
  -------------------------------------||
  -------------------------------------||
  -------------------------------------||
  -------------------4-----------------||
  -------4--4--4--4--4----4--4--4--4---||
  -------2--2--2--2--2----2--2--2--2---||
  -------------------------------------|| x4

 2ND SOLO RIFF

                             PM PM PM PM   
{        
|----------------------|------------------------------|--------------------
|----------------------|------------------------------|--------------------
|----------------------|------------------------------|--------------------
|----------------------|------------------------------|--7------7--7--9--4-
|--4--------2--4--4----|---------------------4--------|--7------7--7--9--4-
|--4--------2--4--4----|------4--4--4--4--2--4--4--2--|--5------5--5--7--2-
|--2--------0--2--2----|------2--2--2--2--0--2--2--0--|--------------------


       PM PM PM PM      PM PM PM PM    
                                         }
  -------------------------------------||
  -------------------------------------||
  -------------------------------------||
  -------------------4-----------------||
  -------4--4--4--4--4----4--4--4--4---||
  -------2--2--2--2--2----2--2--2--2---||
  -------------------------------------|| x4

  OUTRO

       PM PM PM PM     PM PM PM PM     PM PM  
    
  --------------------------------------------|
  --------------------------------------------|
  --------------------------------------------|
  --------------------------------------------|
  --2-4-------------2-4-------------2-4-------|
  --2-4-4--4--4--4--2-4-4--4--4--4--2-4-4--4--|
  --0-2-2--2--2--2--0-2-2--2--2--2--0-2-2--2--|

        PM PM PM PM     PM PM PM PM     PM PM  
  {     
  --------------------------------------------|
  --------------------------------------------|
  --------------------------------------------|
  --------------------------------------------|
  --2-4-------------2-4-------------2-4-------|
  --2-4-4--4--4--4--2-4-4--4--4--4--2-4-4--4--|
  --0-2-2--2--2--2--0-2-2--2--2--2--0-2-2--2--|
  
       PM PM PM PM     PM PM PM PM     PM PM  
    
  --------------------------------------------|
  --------------------------------------------|
  --------------------------------------------|
  --------------------------------------------|
  --2-4-------------2-4-------------2-4-------|
  --2-4-4--4--4--4--2-4-4--4--4--4--2-4-4--4--|
  --0-2-2--2--2--2--0-2-2--2--2--2--0-2-2--2--|

       PM PM PM PM     PM PM PM PM     PM PM  
    
  --------------------------------------------|
  --------------------------------------------|
  --------------------------------------------|
  --------------------------------------------|
  --2-4-------------2-4-------------2-4-------|
  --2-4-4--4--4--4--2-4-4--4--4--4--2-4-4--4--|
  --0-2-2--2--2--2--0-2-2--2--2--2--0-2-2--2--|

        PM PM PM PM PM PM PM PM PM PM PM PM PM PM  
                                                   }
  ------------------------------------------------|
  ------------------------------------------------|
  ------------------------------------------------|
  ------------------------------------------------|
  --2-4-------------------------------------------|
  --2-4-------------------------------------------|
  --0-2-2--2--2--2--2--2--5--5--5--5--0--0--0--0--|  x2

Добавлено: 15.03.2012
Другие материалы по этой песне:

Страница создана 15.03.2012
http://primanota.ru/james-labrie/pretender-chords.htm
Привет, Гость.
Предлагаем пройти революционный курс по гитаре.
Подарок от PrimaNota.Ru, забирай!