PrimaNota.ru - самый крупный в мире бесплатный архив песенных текстов, аккордов, табулатур и нот


James Labrie - One More Time - таба, видео

Регистрация Запомнить меня
Войти через:  Facebook Google Twitter Vk Yandex Mail.ru

James Labrie - One More Time - таба, видео

Печатать
Просмотров: 188
ONE MORE TIME
As recorded by James Labrie

Transcribed by Andreas Nore
        

Words and Music by Guillory, LaBrie

 Intro
 4/4
  Gtr I
                  PM-----|         PM-----|
|---------|--------------------------------------|
|---------|--------------------------------------|
|---------|--------------------------------------|
|---------|--------------------------------------|
|---------|--------------------------------------|
|---------|--------------------------------------|
|---------|---0-0-0-0--0-0-2h3-0-0-0-0--0-0--5p3-|
|
| Gtr II
|---------|----------------9----------------10---|
|---------|-----------12---------------12--------|
|---------|-/11----------------------------------|
|---------|--------------------------------------|
|---------|--------------------------------------|
|---------|--------------------------------------|


         PM----------|
|----------------------------------------|
|----------------------------------------|
|----------------------------------------|
|----------------------------------------|
|----------------------------------------|
|----------------------------------------|
|---0--0-0-0---0-0-0-0-2h3-0-3h=5-0-5h6--|
|
|-(10)-----------------------------------|
|----------------------------------------|
|------------/10---9---------------------|
|------------------------------12--------|
|----------------------------------------|
|----------------------------------------|


       PM-----|         PM-----|
|--------------------------------------|
|--------------------------------------|
|--------------------------------------|
|--------------------------------------|
|--------------------------------------|
|--------------------------------------|
|--0-0-0-0--0-0-2h3-0-0-0-0--0-0---5p3-|
|
|---------------9----------------/10---|
|----------12---------------12---------|
|-11-----------------------------------|
|--------------------------------------|
|--------------------------------------|
|--------------------------------------|


         PM----|                             PM-----|         PM-----|
|-------------------------------------|-------------------------------------|
|-------------------------------------|-------------------------------------|
|-------------------------------------|-------------------------------------|
|-------------------------------------|-------------------------------------|
|-------------------------------------|-------------------------------------|
|---------------------5-5---5-5---5-7-|-------------------------------------|
|---0--0-0-0-0-0-/5h7-----7-----7-----|--0-0-0-0--0-0-2h3-0-0-0-0--0-0--5p3-|
|
|-(10)--------------------------------|---------------9----------------10---|
|-------------------------------------|----------12---------------12--------|
|-------------------------------------|-11----------------------------------|
|-------------------------------------|-------------------------------------|
|-------------------------------------|-------------------------------------|
|-------------------------------------|-------------------------------------|


         PM----------|
|---------------------------------------|
|---------------------------------------|
|---------------------------------------|
|---------------------------------------|
|---------------------------------------|
|---------------------------------------|
|---0--0-0-0---0-0-0-0-2h3-0-3h=5-0-5h6-|
|
|-(10)----------------------------------|
|---------------------------------------|
|------------/10---9--------------------|
|------------------------------12-------|
|---------------------------------------|
|---------------------------------------|


       PM-----|         PM------|               PM----|
|--------------------------------------|-------------------------------------|
|--------------------------------------|-------------------------------------|
|--------------------------------------|-------------------------------------|
|--------------------------------------|-------------------------------------|
|--------------------------------------|-------------------------------------|
|--------------------------------------|---------------------5-5---5-5---5-7-|
|--0-0-0-0--0-0-2h3-0-0-0-0---0-0--5p3-|---0--0-0-0-0-0-/5h7-----7-----7-----|
|
|---------------9-----------/10--------|-------------------------------------|
|----------12---------------------12---|-(12)--------------------------------|
|-11-----------------------------------|-------------------------------------|
|--------------------------------------|-------------------------------------|
|--------------------------------------|-------------------------------------|
|--------------------------------------|-------------------------------------|


 Verse
  PM--|     PM---------------------
|---------------------------------|
|---------------------------------|
|---------------------------------|
|---------------------------------|
|---------------------------------|
|-------5h7-----------------------|
|-0-0-0-----0-7-0-8-0-7-0-7-8-7-5-|


 -----|          PM-----------------------|     PM------------------|
|-----------------------------------|---------------------------------|
|-----------------------------------|---------------------------------|
|-----------------------------------|---------------------------------|
|-----------------------------------|---------------------------------|
|-----------------------------------|---------------------------------|
|-------7h9p7h10p7------------------|-------5h7-----------------------|
|-0-0-0------------8-0-7-0-10-8-7-8-|-0-0-0-----0-7-0-8-0-7-0-7-8-7-5-|


  PM--|          PM-----------------------|     PM  PM|    PM-----------
|-----------------------------------|----------------------------------|
|-----------------------------------|----------------------------------|
|-----------------------------------|----------------------------------|
|-----------------------------------|----------------------------------|
|-----------------------------------|-------7h9------------------------|
|-------7h9p7h10p7------------------|-------------9-----10-----7h9p7h9-|
|-0-0-0------------8-0-7-0-10-8-7-8-|-7-7-7-----7---7-7----7-7---------|


 -----|             PM---------------|
|---------------------------------------|
|---------------------------------------|
|---------------------------------------|
|---------------------------------------|
|-------7h9-7h10p7----------------------|
|------------------10---9---/12-10-9-10-|
|-7-7-7---------------7---7-------------|


                                                                       3/8
  PM--|     PM--------------------------|
|---------------------------------|-----------------------------------|-----||
|---------------------------------|-----------------------------------|-----||
|---------------------------------|-----------------------------------|-----||
|---------------------------------|-----------------------------------|-----||
|---------------------------------|-----------------------------------|-2-4-||
|-------5h7-----------------------|-------7h9p7h10p7------------------|-0-2-||
|-0-0-0-----0-7-0-8-0-7-0-7-8-7-5-|-0-0-0------------8p0-7p0-10p8p7h8-|-----||


 Chorus
 7/8          9/8                                    7/8
                                  PM----------------------------|
|------------|-------------|------------------------|-----------------|
|------------|-------------|------------------------|-----------------|
|------------|-------------|------------------------|-----------------|
|-5------(5)-|-------------|------------------------|-----------------|
|-5------(5)-|-2--7----4-2-|------------------------|-------------2-4-|
|-3------(3)-|-0--5----2-0-|-2----------------------|-------------0-2-|
|------------|-------------|-0--0-0-0-0-0-0-0-0-0-0-|-0-0-0-0-0-0-----|


 7/8          9/8                                    7/8
                                  PM--------------|
|------------|-------------|------------------------|----------|
|------------|-------------|------------------------|----------|
|------------|-------------|------------------------|----------|
|-5------(5)-|-------------|------------------------|-7--------|
|-5------(5)-|-2--7----4-2-|------------------------|-7----2-4-|
|-3------(3)-|-0--5----2-0-|-2----------------------|-5----0-2-|
|------------|-------------|-0--0-0-0-0-0-0-0-0-0-0-|----------|


 7/8          9/8                                    7/8
                                  PM----------------------------|
|------------|-------------|------------------------|-----------------|
|-3------(3)-|-------------|------------------------|-----------------|
|-0------(0)-|-------------|------------------------|-----------------|
|-0------(0)-|-------------|------------------------|-----------------|
|------------|-2--7----4-2-|-2----------------------|-------------2-4-|
|-3------(3)-|-0--5----2-0-|-2----------------------|-------------0-2-|
|------------|-------------|-0--0-0-0-0-0-0-0-0-0-0-|-0-0-0-0-0-0-----|


 7/8          9/8                                     4/8
                                   PM--------------|
|------------|-------------|-------------------------|----------|
|------------|-------------|-------------------------|----------|
|------------|-------------|-------------------------|----------|
|-5------(5)-|-------------|-------------------------|----------|
|-5------(5)-|-2--7----4-2-|-------------------------|-7--------|
|-3------(3)-|-0--5----2-0-|---2---------------------|-5--/7s0\-|
|------------|-------------|-0-0-0-0-0-0-0-0-0-0-0-0-|----------|


   Pre-Verse
   8/8
        PM----|         PM----|           PM--------|
||----------------------------------|---------------------------------|
||----------------------------------|---------------------------------|
||o---------------------------------|---------------------------------|
||----------------------------------|---------------------------------|
||o---------------------------------|---------------------------------|
||----------------------------------|---------------------------------|
||--0-0-0-0-0-0-2h3-0-0-0-0-0-0-5p3-|-0-0-0-0-0-0-0-0-2h3-0-3h5-0-5h6-|


      PM----|         PM----|           PM----|
|---------------------------------|-----------------------------------||
|---------------------------------|-----------------------------------||
|---------------------------------|----------------------------------o||
|---------------------------------|-----------------------------------||
|---------------------------------|----------------------------------o||
|---------------------------------|------------------5-5---5-5---5-7--||
|-0-0-0-0-0-0-2h3-0-0-0-0-0-0-5p3-|-0-0-0-0-0-0-/5h7-----7-----7------||


 Verse
  PM--|     PM---------------------
|---------------------------------|
|---------------------------------|
|---------------------------------|
|---------------------------------|
|---------------------------------|
|-------5h7-----------------------|
|-0-0-0-----0-7-0-8-0-7-0-7-8-7-5-|


 -----|          PM-----------------------|     PM------------------|
|-----------------------------------|---------------------------------|
|-----------------------------------|---------------------------------|
|-----------------------------------|---------------------------------|
|-----------------------------------|---------------------------------|
|-----------------------------------|---------------------------------|
|-------7h9p7h10p7------------------|-------5h7-----------------------|
|-0-0-0------------8-0-7-0-10-8-7-8-|-0-0-0-----0-7-0-8-0-7-0-7-8-7-5-|


  PM--|          PM-----------------------|     PM  PM|    PM-----------
|-----------------------------------|----------------------------------|
|-----------------------------------|----------------------------------|
|-----------------------------------|----------------------------------|
|-----------------------------------|----------------------------------|
|-----------------------------------|-------7h9------------------------|
|-------7h9p7h10p7------------------|-------------9-----10-----7h9-7h9-|
|-0-0-0------------8-0-7-0-10-8-7-8-|-7-7-7-----7---7-7----7-7---------|


 -----|             PM---------------|
|---------------------------------------|
|---------------------------------------|
|---------------------------------------|
|---------------------------------------|
|-------7h9-7h10p7----------------------|
|------------------10---9---/12-10-9-10-|
|-7-7-7---------------7---7-------------|


                                                                       3/8
  PM--|     PM--------------------------|
|---------------------------------|-----------------------------------|-----|
|---------------------------------|-----------------------------------|-----|
|---------------------------------|-----------------------------------|-----|
|---------------------------------|-----------------------------------|-----|
|---------------------------------|-----------------------------------|-2-4-|
|-------5h7-----------------------|-------7h9p7h10p7------------------|-0-2-|
|-0-0-0-----0-7-0-8-0-7-0-7-8-7-5-|-0-0-0------------8p0-7p0-10p8p7h8-|-----|


 Chorus
 7/8          9/8                                    7/8
                                  PM----------------------------|
|------------|-------------|------------------------|-----------------|
|------------|-------------|------------------------|-----------------|
|------------|-------------|------------------------|-----------------|
|-5------(5)-|-------------|------------------------|-----------------|
|-5------(5)-|-2--7----4-2-|------------------------|-------------2-4-|
|-3------(3)-|-0--5----2-0-|-2----------------------|-------------0-2-|
|------------|-------------|-0--0-0-0-0-0-0-0-0-0-0-|-0-0-0-0-0-0-----|


 7/8          9/8                                    7/8
                                  PM--------------|
|------------|-------------|------------------------|----------|
|------------|-------------|------------------------|----------|
|------------|-------------|------------------------|----------|
|-5------(5)-|-------------|------------------------|----------|
|-5------(5)-|-2--7----4-2-|------------------------|-7----2-4-|
|-3------(3)-|-0--5----2-0-|-2----------------------|-5----0-2-|
|------------|-------------|-0--0-0-0-0-0-0-0-0-0-0-|----------|


 7/8          9/8                                    7/8
                                  PM----------------------------|
|------------|-------------|------------------------|-----------------|
|-3------(3)-|-------------|------------------------|-----------------|
|-0------(0)-|-------------|------------------------|-----------------|
|-0------(0)-|-------------|------------------------|-----------------|
|------------|-2--7----4-2-|------------------------|-------------2-4-|
|-3------(3)-|-0--5----2-0-|-2----------------------|-------------0-2-|
|------------|-------------|-0--0-0-0-0-0-0-0-0-0-0-|-0-0-0-0-0-0-----|


 7/8          9/8                                     4/8
                                   PM--------------|
|------------|-------------|-------------------------|----------|
|------------|-------------|-------------------------|----------|
|------------|-------------|-------------------------|----------|
|-5------(5)-|-------------|-------------------------|----------|
|-5------(5)-|-2--7----4-2-|-------------------------|-7--------|
|-3------(3)-|-0--5----2-0-|---2---------------------|-5--/7s0\-|
|------------|-------------|-0-0-0-0-0-0-0-0-0-0-0-0-|----------|


 Bridge
 4/4
              >
|----------|------------|------------|------------|---------|------------|
|----------|------------|------------|------------|---------|------------|
|----------|------------|------------|------------|---------|------------|
|----------|------------|------------|------------|---------|--------/9--|
|-2--------|-(2)--------|-(2)--------|-(2)--------|---------|------------|
|-2--------|-(2)--------|-(2)--------|-(2)--------|---------|---------2/-|
|-0--------|-(0)--------|-(0)--------|-(0)--------|---------|---------0/-|


 Guitar Solo
  Gtr I
|------------------------------------------|-----------------------------------------|
|------------------------------------------|-----------------------------------------|
|------------------------------------------|-----------------------------------------|
|------------------------------------------|-----------------------------------------|
|------------------------------------------|-----------------------------------------|
|-0-0-0-0--x-x---0-0--0-0---x-x--0-0---0-0-|-----------------------------------------|
|------------------------------------------|--0-0--0-0--x-x--0-0--0-0--x-x--0-0--0-0-|
|
| Gtr III
|------------------------------------------|-----------------------------------------|
|------------------------------------------|------14---15--------17--------19--------|
|-9-------11---/12--------/14--------/16---|--------------------------16--------16---|
|-----9--------------12---------14---------|-16-------------16-----------------------|
|------------------------------------------|-----------------------------------------|
|------------------------------------------|-----------------------------------------|
|------------------------------------------|-----------------------------------------|


|----------------------------------------------------------|
|----------------------------------------------------------|
|----------------------------------------------------------|
|----------------------------------------------------------|
|----------------------------------------------------------|
|--5-----5-5---5---x-x--5-5-5--5----x----x-5-5------5----5-|
|----------------------------------------------------------|
|
|-19b21======(19)r19---17h====19p17----------------21b22---|
|-------------------------------------20---------x---------|
|----------------------------------------------x-----------|
|----------------------------------------------------------|
|----------------------------------------------------------|
|----------------------------------------------------------|
|----------------------------------------------------------|


    ~~~~        ~
|---------------------------------------|-----------------------------------------------|
|---------------------------------------|-----------------------------------------------|
|---------------------------------------|-----------------------------------------------|
|---------------------------------------|-----------------------------------------------|
|---------------------------------------|-----------------------------------------------|
|---3---2-3-2-0-------------------------|--0--0--0--0--x--x--0--0-0--0--x--x--0--0--0-0-|
|---------------3--------0----2--3----2-|-----------------------------------------------|
|
|   ~~~~
|-(21)------------12----12------12------|-12-14-10--------------------------------------|
|-----------------15b17-15b17---15b17---|----------12-14-10-----------------------------|
|---------------------------------------|-------------------11-14-9---------------------|
|---------------------------------------|---------------------------12-14-11------------|
|---------------------------------------|------------------------------------12---------|
|---------------------------------------|---------------------------------------14-10S9S|
|---------------------------------------|-----------------------------------------------|


|----------------------------------------|
|----------------------------------------|
|----------------------------------------|
|----------------------------------------|
|----------------------------------------|
|----------------------------------------|
|-0--0-0-0--x-x-0--0-0-0--x-x-0--0-0--0--|
|
|----------------------------------9-10--|
|----------------------7-12---7-12-------|
|--------------------9------9------------|
|--------7-12---7-12---------------------|
|------9------9--------------------------|
|-7-12-----------------------------------|
|----------------------------------------|


                                                 ~~                     ~~
|---------------------------------------------|-----------------------------------------|
|---------------------------------------------|-----------------------------------------|
|---------------------------------------------|-----------------------------------------|
|---------------------------------------------|-----------------------------------------|
|---------------------------------------------|-----------------------------------------|
|---5-5-5--5-----x-x--5-5-5-5-x--x--5-5--5--5-|--3-----------2--3--2-0------------------|
|---------------------------------------------|-------------------------3-------0-2-3-2-|
|
|   ~~~               ~~
|---------------------------------------------|-----------------------------------------|
|-/14-----15p14p12-------------------------12-|-15-14-12----12S10-----------------------|
|--------------------14---------------9-14----|----------14-------11-9-\9-7-----7-6-----|
|----------------------------------11---------|-----------------------------9-7-----9-7-|
|-----------------------------9-14------------|-----------------------------------------|
|---------------------------------------------|-----------------------------------------|
|---------------------------------------------|-----------------------------------------|


|-----------------------------------------------------------|
|-----------------------------------------------------------|
|-----------------------------------------------------------|
|-----------------------------------------------------------|
|-----------------------------------------------------------|
|---0--0--0--0--x--x--0----0---0---0-----x--x--0--0--0--0---|
|-----------------------------------------------------------|
|
|--------------14----13b14---(13)-14p13p12-10---------------|
|-/12-14-15-12----12--------------------------14-12-10------|
|------------------------------------------------------12---|
|-----------------------------------------------------------|
|-----------------------------------------------------------|
|-----------------------------------------------------------|
|-----------------------------------------------------------|


|-----------------------------------------------------------|
|-----------------------------------------------------------|
|-----------------------------------------------------------|
|-----------------------------------------------------------|
|-----------------------------------------------------------|
|-----------------------------------------------------------|
|--0--0--0--0--x--x--0----0---0------0-----x--x--0--0--0--0-|
|
|-----------------------------------------------------------|
|-------------15----14b15---(14)-15p14p12-------------------|
|-11-12-14--------------------------------14-12-------------|
|----------12----12-----------------------------14-12-------|
|-----------------------------------------------------14S16-|
|-----------------------------------------------------------|
|-----------------------------------------------------------|


                                       ~~~~~~~~~~~~~~~~                      ~~
|------------------------------------------------|------------------------------------------------|
|------------------------------------------------|------------------------------------------------|
|------------------------------------------------|------------------------------------------------|
|-------------------9--9--9----------------------|------------------------------------------------|
|----------7--7--7-----------7--7--7-------------|------------------------------------------------|
|-5--5--5-----------------------------5----------|--3-----------2--3--2--0------------------------|
|------------------------------------------------|--------------------------3-----------0--2--3--2|
|
|------------------------------------14-14-14-17S|=19-14------------------------------------------|
|---------------------------17-17-17-------------|-------19-19-14-14-19-14-15-14----14S12----12-14|
|------------------16-16-16----------------------|------------------------------------------------|
|---------14-14-14-------------------------------|-------------------------------16-------14------|
|12-12-12----------------------------------------|------------------------------------------------|
|------------------------------------------------|------------------------------------------------|
|------------------------------------------------|------------------------------------------------|


|--------------------------------------------------------------|
|--------------------------------------------------------------|
|--------------------------------------------------------------|
|--------------------------------------------------------------|
|--------------------------------------------------------------|
|---0-----0--0--0-----x--x--0--0--0--0--x--x--0-----0--0--0----|
|--------------------------------------------------------------|
|
|--------14-15-------------------------------------14-15-------|
|-/17b19-------17b19-17-15-------15----------17b19-------17b19-|
|--------------------------14-16----16-14-16-------------------|
|--------------------------------------------------------------|
|--------------------------------------------------------------|
|--------------------------------------------------------------|
|--------------------------------------------------------------|


|-------------------------------------------------|
|-------------------------------------------------|
|-------------------------------------------------|
|-------------------------------------------------|
|-------------------------------------------------|
|-------------------------------------------------|
|--0--0--0--0--x--x--0--0--0--0--x--x--0--0--0--0-|
|
|-------------------------------------------------|
|-17-15-------15----------15----17----15----14----|
|-------14-16----16-14-16----14----14----14----14-|
|-------------------------------------------------|
|-------------------------------------------------|
|-------------------------------------------------|
|-------------------------------------------------|


|---------------------------------------------------------|
|---------------------------------------------------------|
|---------------------------------------------------------|
|---------------------------------------------------------|
|---------------------------------------------------------|
|--5-----5---5--5---x---x-5-5--5-----5---x--x---5---5-5-5-|
|---------------------------------------------------------|
|
|  ~~~~~~~~~~~~~~~~~~~~~~~~~~~~~~~~~~~~~~~~~~~~~~~~~
|-----------------------------15b17====(15)---(15)r-------|
|-15b17====(15)---(15)r-----------------------------------|
|---------------------------------------------------------|
|---------------------------------------------------------|
|---------------------------------------------------------|
|---------------------------------------------------------|
|---------------------------------------------------------|


                                                                                   3/8
   ~~                                      ~~
|---------------------------------------------------------------------------------|--------|
|---------------------------------------------------------------------------------|--------|
|---------------------------------------------------------------------------------|--------|
|---------------------------------------------------------------------------------|--------|
|---------------------------------------------------------------------------------|--2--4--|
|--3-----------------2----3-----2----0--------------------------------------------|--0--2--|
|------------------------------------------3-----------------0----2-----3----2----|--------|
|
|-19-17-19-17-15-17-14-15---17-15-14---15-12-14-15-14-12--------------------------|--------|
|--------------------------------------------------------15-14-12-----------------|--------|
|-------------------------------------------------------------------14-11---------|--------|
|-------------------------------------------------------------------------14---11-|----11--|
|---------------------------------------------------------------------------------|-14-----|
|---------------------------------------------------------------------------------|--------|
|---------------------------------------------------------------------------------|--------|


 Out-Chorus
 7/8            9/8                                     7/8
                                     PM----------------------------|
|--------------|--------------|------------------------|------------------|
|--------------|--------------|------------------------|------------------|
|--------------|--------------|------------------------|------------------|
|--5-------(5)-|--------------|------------------------|------------------|
|--5-------(5)-|-2--7----4-2--|------------------------|-------------2-4--|
|--3-------(3)-|-0--5----2-0--|-2----------------------|-------------0-2--|
|--------------|--------------|-0--0-0-0-0-0-0-0-0-0-0-|-0-0-0-0-0-0------|
|
|  ~~
|--------------|--------------|------------------------|------------------|
|--------------|--------------|------------------------|------------------|
|--------------|--------------|------------------------|------------------|
|-12------(12)-|--------------|------------------------|------------------|
|--------------|--------------|------------------------|------------------|
|--------------|--------------|------------------------|------------------|
|--------------|--------------|------------------------|------------------|


 7/8          9/8                                    7/8
                                  PM----------------------------|
|------------|-------------|------------------------|-----------------|
|------------|-------------|------------------------|-----------------|
|------------|-------------|------------------------|-----------------|
|-5------(5)-|-------------|------------------------|-----------------|
|-5------(5)-|-2--7----4-2-|------------------------|-------------2-4-|
|-3------(3)-|-0--5----2-0-|-2----------------------|-------------0-2-|
|------------|-------------|-0--0-0-0-0-0-0-0-0-0-0-|-0-0-0-0-0-0-----|


 7/8          9/8                                    7/8
                                  PM----------------------------|
|------------|-------------|------------------------|-----------------|
|-3------(3)-|-------------|------------------------|-----------------|
|-0------(0)-|-------------|------------------------|-----------------|
|-0------(0)-|-------------|------------------------|-----------------|
|------------|-2--7----4-2-|------------------------|-------------2-4-|
|-3------(3)-|-0--5----2-0-|-2----------------------|-------------0-2-|
|------------|-------------|-0--0-0-0-0-0-0-0-0-0-0-|-0-0-0-0-0-0-----|


 7/8          9/8                                     4/8
                                   PM--------------|
|------------|-------------|-------------------------|----------|
|------------|-------------|-------------------------|----------|
|------------|-------------|-------------------------|----------|
|-5------(5)-|-------------|-------------------------|----------|
|-5------(5)-|-2--7----4-2-|-------------------------|-7--------|
|-3------(3)-|-0--5----2-0-|---2---------------------|-5--/7s0\-|
|------------|-------------|-0-0-0-0-0-0-0-0-0-0-0-0-|----------|


 Outro
 4/4
  Gtr I
        PM-----|         PM-----|               PM----------|
|--------------------------------------|---------------------------------------|
|--------------------------------------|---------------------------------------|
|--------------------------------------|---------------------------------------|
|--------------------------------------|---------------------------------------|
|--------------------------------------|---------------------------------------|
|--------------------------------------|---------------------------------------|
|---0-0-0-0--0-0-2h3-0-0-0-0--0-0--5p3-|---0--0-0-0---0-0-0-0-2h3-0-3h=5-0-5h6-|
|
| Gtr II
|----------------9----------------10---|-(10)----------------------------------|
|-----------12---------------12--------|---------------------------------------|
|-/11----------------------------------|------------/10---9--------------------|
|--------------------------------------|------------------------------12-------|
|--------------------------------------|---------------------------------------|
|--------------------------------------|---------------------------------------|


       PM-----|         PM-----|
|-----------------------------------------|
|-----------------------------------------|
|-----------------------------------------|
|-----------------------------------------|
|-----------------------------------------|
|-----------------------------------------|
|--0-0-0-0--0-0-2h3-0-0-0-0--0-0---5p3----|
|
|---------------9----------------/10------|
|----------12---------------12------------|
|-11--------------------------------------|
|-----------------------------------------|
|-----------------------------------------|
|-----------------------------------------|


         PM----|                             PM-----|         PM-----|
|-------------------------------------|-------------------------------------|
|-------------------------------------|-------------------------------------|
|-------------------------------------|-------------------------------------|
|-------------------------------------|-------------------------------------|
|-------------------------------------|-------------------------------------|
|---------------------5-5---5-5---5-7-|-------------------------------------|
|---0--0-0-0-0-0-/5h7-----7-----7-----|--0-0-0-0--0-0-2h3-0-0-0-0--0-0--5p3-|
|
|-(10)--------------------------------|---------------9----------------10---|
|-------------------------------------|----------12---------------12--------|
|-------------------------------------|-11----------------------------------|
|-------------------------------------|-------------------------------------|
|-------------------------------------|-------------------------------------|
|-------------------------------------|-------------------------------------|


         PM----------|
|---------------------------------------|
|---------------------------------------|
|---------------------------------------|
|---------------------------------------|
|---------------------------------------|
|---------------------------------------|
|---0--0-0-0---0-0-0-0-2h3-0-3h=5-0-5h6-|
|
|-(10)----------------------------------|
|---------------------------------------|
|------------/10---9--------------------|
|------------------------------12-------|
|---------------------------------------|
|---------------------------------------|


       PM-----|         PM------|
|--------------------------------------|
|--------------------------------------|
|--------------------------------------|
|--------------------------------------|
|--------------------------------------|
|--------------------------------------|
|--0-0-0-0--0-0-2h3-0-0-0-0---0-0--5p3-|
|
|---------------9-----------/10--------|
|----------12---------------------12---|
|-11-----------------------------------|
|--------------------------------------|
|--------------------------------------|
|--------------------------------------|


         PM----|                        PM--|     PM------------------|
|-------------------------------------|---------------------------------|
|-------------------------------------|---------------------------------|
|-------------------------------------|---------------------------------|
|-------------------------------------|---------------------------------|
|-------------------------------------|---------------------------------|
|---------------------5-5---5-5---5-7-|-------5h7-----------------------|
|---0--0-0-0-0-0-/5h7-----7-----7-----|-0-0-0-----0-7-0-8-0-7-0-7-8-7-5-|
|
|-------------------------------------|---------------------------------|
|-(12)--------------------------------|---------------------------------|
|-------------------------------------|---------------------------------|
|-------------------------------------|---------------------------------|
|-------------------------------------|---------------------------------|
|-------------------------------------|---------------------------------|


  PM--|          PM------------------
|-----------------------------------|
|-----------------------------------|
|-----------------------------------|
|-----------------------------------|
|-----------------------------------|
|-------7h9p7h10p7------------------|
|-0-0-0------------8-0-7-0-10-8-7-8-|


 -----------------|
|---------------------------------|---------------------------------|
|---------------------------------|---------------------------------|
|---------------------------------|---------------------------------|
|---------------------------------|-------------4-4-------2p0-------|
|---------------------------------|-------2-2-2---------------------|
|-------------------0-0-0-5-3-2-3-|-0-0-0-----------3-3-3-----5-3-2-|
|-0-0-0-2-2-2-3-3-3---------------|---------------------------------|


              >
|----------|------------|--------*|
|----------|------------|--------*|
|----------|------------|--------*|
|----------|------------|--------*|
|-2--------|-(2)--------|-(2)----*|
|-2--------|-(2)--------|-(2)----*|
|-0--------|-(0)--------|-(0)----*|




Добавлено: 26.04.2012
Другие материалы по этой песне:

Страница создана 15.04.2012
http://primanota.ru/james-labrie/one-more-time-chords.htm
Привет, Гость.
Предлагаем пройти революционный курс по гитаре.
Подарок от PrimaNota.Ru, забирай!