PrimaNota.ru - самый крупный в мире бесплатный архив песенных текстов, аккордов, табулатур и нот


James Kochalka - Alberts My Friend - таба, видео

Регистрация Запомнить меня
Войти через:  Facebook Google Twitter Vk Yandex Mail.ru

James Kochalka - Alberts My Friend - таба, видео

Печатать
Просмотров: 101
As recorded by James Kochalka Superstar
              (From the 2006 Album SPREAD YOUR EVIL WINGS AND FLY)


Gtr I (E A D G B E) - 'Untitled'

    Q=145(8=s8)
   4/4
    Gtr I
    E E E Q.   Q    E E E Q.   Q    E E E Q.   Q    E E E Q.   Q
||----------------|---------------|---------------|---------------|
||o---------------|---------------|---------------|---------------|
||----------------|---------------|---------------|---------------|
||----------------|---------------|---------------|---------------|
||o-------2----2--|-------2----2--|-------2----2--|-------2----2--|
||--0-2-4---------|-0-2-4---------|-0-2-4---------|-0-2-4---------|


  E E E Q.   Q    E E E Q.   Q    E E E Q.   Q    E E E Q.   Q
|---------------|---------------|---------------|----------------|
|---------------|---------------|---------------|----------------|
|---------------|---------------|---------------|----------------|
|-------2----2--|-------2----2--|---------------|----------------|
|-0-2-4---------|-0-2-4---------|-------2----2--|-------2----2---|
|---------------|---------------|-0-2-4---------|-0-2-4----------|


  E E E Q.   Q    E E E Q.   Q    E E E Q.   Q    E E E Q.   Q
|---------------|---------------|---------------|----------------|
|---------------|---------------|---------------|----------------|
|---------------|---------------|---------------|----------------|
|---------------|---------------|-----1-4----4--|-------2----2---|
|-------2----2--|-------2----2--|-2-4-----------|-0-2-4----------|
|-0-2-4---------|-0-2-4---------|---------------|----------------|


  E E E Q.   Q    E E E E E E Q
|---------------|-----------------||
|---------------|----------------o||
|---------------|-1---1---1-------||
|---------------|-2---2---2-------||
|-------2----2--|-2---2---2------o||
|-0-2-4---------|-0---0---0-------||



Добавлено: 28.03.2012
Другие материалы по этой песне:

Страница создана 07.03.2012
http://primanota.ru/james-kochalka/alberts-my-friend-chords.htm
Привет, Гость.
Предлагаем пройти революционный курс по гитаре.
Подарок от PrimaNota.Ru, забирай!