PrimaNota.ru - самый крупный в мире бесплатный архив песенных текстов, аккордов, табулатур и нот


James Howe - Love Lifted Me - таба, видео

Регистрация Запомнить меня
Войти через:  Facebook Google Twitter Vk Yandex Mail.ru

James Howe - Love Lifted Me - таба, видео

Печатать
Просмотров: 76
Уроки эстрадного вокала в Санкт-Петербурге
-------------------------------------------------------------------------------
                             love lifted me - james howe
-------------------------------------------------------------------------------
Tabbed by:
E-mail:
key of Bb
Tuning:E-A-D-G-B-e

e|---------------------------------------------------------------------------|
B|---------------------------------------------1-----------------------------|
G|----0----------------0-----------0---2---3---------2---0-2--0---------0----|
D|-3--0----3--0----3---0--3---3----0---0---0---0-----1---1-1--1---1-----1----|
A|-5-------5--1----5------5---5-----------------------------------3----------|
E|---------------------------------------------------------------------------|
   i was sinking deep in sin far from the peaceful shore very deeply stained 
e|-----------------------------------------------------------------------------|
B|-----------------------------------------------------------------------------|
G|--2--0---0-2-----3---2---0-----------0-------------0-------------0--2--3-----|
D|--1--1---1-1-----1---1---1---3---3---0---3--0---3--0---3----3----0--0--0--3--|
A|-----------------------------5---5-------5--1---5------5----5-------------5--|
E|-----------------------------------------------------------------------------|
   within sinking to rise no more but the master of the sea heard my despairing
e|---------------------------------------------------------------------------|
B|------------------1----3-----------------1---------------------------------|
G|--0----0---2---3----------3--2--0----------3-------------------------------|
D|--1----1---3---5-------3--0--3--1---3----1-0-------------------------------|
A|------------------------------------5--------------------------------------|
E|---------------------------------------------------------------------------|
   cry from the waters lifted me now safe am i
e|----------------------------------------------------------------------------|
B|--------3------1---------------------------------------------------1------3-|
G|-------------------3---3------2---0---0---0-2-3---------3-----3--------0----|
D|--------3---3--1---0---0---0----------1---1---0----3----0-----3----1---1--1-|
A|---------------------------1--1---1----------------5------------------------|
E|----------------------------------------------------------------------------|
chorus: love lifted me love lifted me when nothing else could help love lifted
e|---------------------------------------------------------------------------|
B|-3----3---3--1-------------------------------------------------------------|
G|-----------------3---------------------------------------------------------|
D|-3----3---3--1---0---------------------------------------------------------|
A|---------------------------------------------------------------------------|
E|---------------------------------------------------------------------------|
   me love lifted me



************************************

| /   slide up
| \   slide down
| h   hammer-on
| p   pull-off
| ~   vibrato
| +   harmonic
| x   Mute note
| b   Bend
| pb  Pre-bend
| br  Bend release
| pbr Pre-bend release
| brb Bend release bend

************************************
Добавлено: 13.12.2015
Другие материалы по этой песне:
  • Аккорды и текст

Страница создана 13.12.2015
http://primanota.ru/james-howe/love-lifted-me-chords.htm
Привет, Гость.
Предлагаем пройти революционный курс по гитаре.
Подарок от PrimaNota.Ru, забирай!