PrimaNota.ru - самый крупный в мире бесплатный архив песенных текстов, аккордов, табулатур и нот


James Horner - Willow - таба, видео

Регистрация Запомнить меня
Войти через:  Facebook Google Twitter Vk Yandex Mail.ru

James Horner - Willow - таба, видео

Печатать
Просмотров: 147
--------------------------------------------------------------------

  James Horner's Theme Song to "Willow"
  

   Intro: To the Greatest Song in the World
e:-------------------------------------------------------------------|
B:-------------------------------------------------------------------|
G:-------------------------------------------------------------------|
D:---7-6-7--9--7-6-7-6-----------------------------------------------|
A:-----------------------9-11-9-11-9--6-7----------------------------|
E:-------------------------------------------------------------------|
      
e:-------------------------------------------------------------------|
B:-------------------------------------------------------------------|
G:-------------------------------------------9-11-9-8-6-8------------|
D:----------9-7-6-7---------------9-7-6-7----------------------------|
A:---7-9-7----------7-------7-9-7----------7-------------------------|
E:-------------------------------------------------------------------|

  Chorus:
e:---------------------------------------9---------------------------|
B:-------9------------9---------9----------11-12---------------------|
G:---9-----11--9--------11--9-----11--9----------11-13-14------14-14-|
D:-----9---------9-----------------------------------------14-11-----|
A:-------------------------------------------------------------------|
E:-------------------------------------------------------------------|

e:------------------9------------------------------------------------|
B:--------------------12-11-12---------------------------------------|
G:---13-----11-11-9--------------------------------------------------|
D:-----14-9----------------------------------------------------------|
A:-------------------------------------------------------------------|
E:-------------------------------------------------------------------|

  Tabbed by:
         Madmartigan - Carl
         Willow - Harrison
     on 2/26/2008


Добавлено: 19.04.2012
Другие материалы по этой песне:
  • Аккорды и текст

Страница создана 19.04.2012
http://primanota.ru/james-horner/willow-chords.htm
Привет, Гость.
Предлагаем пройти революционный курс по гитаре.
Подарок от PrimaNota.Ru, забирай!