PrimaNota.ru - самый крупный в мире бесплатный архив песенных текстов, аккордов, табулатур и нот


James Elmore - Shake Your Moneymaker - текст песни, таба, видео

Регистрация Запомнить меня
Войти через:  Facebook Google Twitter Vk Yandex Mail.ru

James Elmore - Shake Your Moneymaker - текст песни, таба, видео

Печатать
Просмотров: 302
Авторы музыки: Elmore James
Авторы текста: Elmore James
This is transcribed from "The Fire Sessions." The tuning is open D (DADF#AD). At the
there's a piano playing a call and response part after each riff. If you want to imitate
simply play at the twelfth fret with a slide. Also, the guitar in the actual song does 
play in the verses (save for the slide part at the end of each verse). What I've
is the bass part or a part for a second guitar.

|---------------------------------------------------------------------------|
|---------------------------------------------------------------------------|
|---------------------------------------------------------------------------|
|---------------------------------------------------------------------------|
|---0--2--3--2--0---5--7--8--7--5---0--2--3--2--0---7--9--10--9---5--7--8--7|
|-0--0--0--0--0---5--5--5--5--5---0--0--0--0--0---7--7--7---7---5--5--5--5--|

|--/12-(listen-to-the-record------------------------------------------------|
|--/12--for-number-of-strums)-V---------------------------------------------|
|--/12------------------------E---------------------------------------------|
|--/12------------------------R---------------------------------------------|
|-----------------------------S----0--2------5-7-----0-2----7-9----5-7------|
|-----------------------------E--0--0---X4--5-5--X4-0-0-X4-7-7-X2-5-5-X2----|


|-/12---------------------S-------------12-10------------5-3---------12-10--|
|-/12---------------------O-(All-----12------12--------5----5------12-----12|
|-/12--X5-(odd-timing-----L--with--12-----------12---5--------5--12---------|
|-/12------again,-listen)-O---a---------------------------------------------|
|----------------------------slide)-----------------------------------------|
|---------------------------------------------------------------------------|

|------7--7----5--5---/12---------------------------------------------------|
|-------7--7----5--5--/12---------------------------------------------------|
|-12--7------5--------/12-X5------------------------------------------------|
|---------------------/12---------------------------------------------------|
|---------------------------------------------------------------------------|
|---------------------------------------------------------------------------|


Have fun! Corrections/comments go to abelincoln212@aol.com
Добавлено: 22.05.2012
Другие материалы по этой песне:
  • Аккорды и текст

Страница создана 12.05.2012
http://primanota.ru/james-elmore/shake-your-moneymaker-chords.htm
Привет, Гость.
Предлагаем пройти революционный курс по гитаре.
Подарок от PrimaNota.Ru, забирай!