PrimaNota.ru - самый крупный в мире бесплатный архив песенных текстов, аккордов, табулатур и нот


James Dean Bradfield - Thats No Way To Tell A Lie - текст песни, таба, бас-таба, видео

Регистрация Запомнить меня
Войти через:  Facebook Google Twitter Vk Yandex Mail.ru

James Dean Bradfield - Thats No Way To Tell A Lie - текст песни, таба, бас-таба, видео

Печатать
Просмотров: 129
Intro:

e------------------------------------------------------------------------|
B------------------------------------------------------------------------|
G---5---7-9-10---10-10---10-10---10---12-14-9---9-9---9-9---12-14-12-10--|
D---5---7-9-10---10-10---10-10---10---12-14-9---9-9---9-9---12-14-12-10--|
A------------------------------------------------------------------------|
E------------------------------------------------------------------------|

e------------------------------------------------------------------------|
B------------------------------------------------------------------------|
G---10-10-10---10-10-10---10-10-10---10-10-10----------------------------|
D---10-10-10---10-10-10---10-10-10---10-10-10----------------------------|
A------------------------------------------------------------------------|
E------------------------------------------------------------------------|
                                       “I hear you got some...”

Verse 1:

e------------------------------------------------------------------------|
B------------------------------------------------------------------------|
G------------------------------------------------------------------------|
D---5---7-9-10---10-10---10-10---10---12-14-9---9-9---9-9---12-14-12-10--|
A---3---5-7--8----8--8----8--8----8---10-12-7---7-7---7-7---10-12-10--8--|
E------------------------------------------------------------------------|

e------------------------------------------------------------------------|
B------------------------------------------------------------------------|
G------------------------------------------------------------------------|
D---10-10-10---10-10-10---10-10-10--(-10-10-10-)-------------------------| x2
A----8--8--8----8--8--8----8--8--8--(--8--8--8-)-------------------------|
E-----------------------------------1st time only------------------------|

Chorus:

e------------------------------------------------------------------------|
B-(-18--------------17--------------15--------------13---violins-)-------|
G---5---5-5---5-5---7---7-7---7-7---9---9-9---9-9---10---10-10---10-10---|
D---5---5-5---5-5---7---7-7---7-7---9---9-9---9-9---10---10-10---10-10---| x2
A---3---3-3---3-3---5---5-5---5-5---7---7-7---7-7----8----8--8----8--8---|
E------------------------------------------------------------------------|

e------------------------------------------------------------------------|
B------------------------------------------------------------------------|
G---12---12-12---12-12---------------------------------------------------|
D---12---12-12---12-12---12---10-8-6-------------------------------------|
A---10---10-10---10-10---10----8-6-4-------------------------------------|
E------------------------------------------------------------------------|

Bridge:

Repeat Intro

Lead guitar
e------------------------------------------------------------------------|
B------------------------------------------------------------------------|
G-----------12-14---14---16---17-16------16-17-16-14---------------------|
D---14---15--------------------------------------------------------------|
A------------------------------------------------------------------------|
E------------------------------------------------------------------------|

Verse 2:

Same as verse 1

Chorus

Post-Chorus:

e-----------------------------------------------------------------------------|
B-------------------------------------------(-repeat rhythm-)-----------------|
G---12---12-12---12-12---12---12-12---12-12---14---10---5---12---14---10---12-|
D---12---12-12---12-12---12---12-12---12-12---14---10---5---12---14---10---12-|
A---10---10-10---10-10---10---10-10---10-10---12----8---3---10---12----8---10-|
E-----------------------------------------------------------------------------|

Lead guitar
e------------------------------------------------------------------------|
B------------------------------------------------------------------------|
G---16---14-16---14-16-14-16---14-16---14-16-14--------------------------|
D------------------------------------------------------------------------|
A------------------------------------------------------------------------|
E------------------------------------------------------------------------|

e------------------------------------------------------------------------|
B-(-repeat above riff on following frets-)-------------------------------|
G---17-16---14-12---9-7---16-14---17-16---14-12---14-16------------------|
D------------------------------------------------------------------------|
A------------------------------------------------------------------------|
E------------------------------------------------------------------------|

Solo (plays in addition to Lead)
e-------------------------12---------------------------------------------|
B---12---12-12---12-12-12----15-13-12------12----12-13-------------------|
G---------------------------------------14----14---------14--------------|
D------------------------------------------------------------------------|
A------------------------------------------------------------------------|
E------------------------------------------------------------------------|

e------------------------------------------------------------------------|
B------------------------------------------------------------------------|
G------14-12-10------10-12---12---14---15---17---------------------------|
D---14------------10-----------------------------------------------------|
A------------------------------------------------------------------------|
E------------------------------------------------------------------------|

Repeat chorus (play first part x4)

Outro:

e------------------------------------------------------------------------|
B------------------------------------------------------------------------|
G------------------------------------------------------------------------|
D---5---7-9-10---10-10---10-10---10---12-14-9---9-9---9-9---12-14-12-10--|
A---3---5-7--8----8--8----8--8----8---10-12-7---7-7---7-7---10-12-10--8--|
E------------------------------------------------------------------------|

e------------------------------------------------------------------------|
B------------------------------------------------------------------------|
G------------------------------------------------------------------------|
D---10-10-10---10-10-10--(-10-10-10---10-10-10-)--(-10---9---7---5-)-----|
A----8--8--8----8--8--8--(--8--8--8----8--8--8-)--(--8---7---5---3-)-----|
E------------------------1st time only------------2nd time only----------|

Lead guitar
e------------------------------------------------------------------------|
B------------------------------------------------------------------------|
G-----------12-14---14---16---17-16------16-17-16-14---------------------|
D---14---15--------------------------------------------------------------|
A------------------------------------------------------------------------|
E------------------------------------------------------------------------|

e------------------------------------------------------------------------|
B------------------------------------------------------------------------|
G------------------------12-14---------12-14-12--------------------------|
D--------12-14-15---15---------14---------------15---15---14---12---10---|
A---15-------------------------------------------------------------------|
E------------------------------------------------------------------------|
Добавлено: 12.04.2012
Другие материалы по этой песне:
  • Аккорды и текст

Страница создана 10.04.2012
http://primanota.ru/james-dean-bradfield/thats-no-way-to-tell-a-lie-chords.htm
Привет, Гость.
Предлагаем пройти революционный курс по гитаре.
Подарок от PrimaNota.Ru, забирай!