PrimaNota.ru - самый крупный в мире бесплатный архив песенных текстов, аккордов, табулатур и нот


James Coffey - Nine Hundred Miles - таба, видео

Регистрация Запомнить меня
Войти через:  Facebook Google Twitter Vk Yandex Mail.ru

James Coffey - Nine Hundred Miles - таба, видео

Печатать
Просмотров: 173
Уроки эстрадного вокала в Санкт-Петербурге
-------------------------------------------------------------------------------
                             James Coffey - Nine Hundred Miles
-------------------------------------------------------------------------------
Tabbed by: Diesel
E-mail: daughtryfan497@gmail.com

Tuning: Standard

Dm (x57765)
C (x35555)
F (810101010) or (133211)
G (355433)
A7 (575655)

                          Intro

e|--------5----5---5---------------5-8-10-10-8-5--5-----------------------------|
B|-------6--8-6---6--8-6-----5-------------------6--8-6--6-6-6-8-6-5----6-5-----|
G|------7--------7------7-77--5-7---------------7------7-------------7-7---5-7--|
D|------------------------------------------------------------------------------|
A|------------------------------------------------------------------------------|
E|------------------------------------------------------------------------------|

                         Verse
Dm
Well I'm ridin' on this train, I've got tears in my eyes
Dm               C              Dm
Tryin' to read a letter from my home

                             Chorus

Dm
If this train runs me right, I'll be home tomorrow night
           F            C            Dm
'Cause I'm nine hundred miles from my home
      F                  C               Dm
And I hate to hear that lonesome whistle blow


Interlude: C, Dm x3 C, Gmaj, A7


Repeat Verse

Repeat Chorus

                               Solo @ 2:02

e|----------------------10T-13p10p13p10--------------------------------------|
B|--------------10T-13T------------------13p10-13p10---13p10-13p10-----------|
G|------10T-12T--------------------------------------12---------12p1012p10---|
D|--12T-------------------------------------------------------------------12-|
A|---------------------------------------------------------------------------|
E|---------------------------------------------------------------------------|

e|-------------------10------13-13p10----- 13-15-17-15-13--------13T-15T-17T--|
B|-----------10--------13p10----------13-15----------------15-15T-------------|
G|-10-----------12p10---------------------------------------------------------|
D|-----12p10------------------------------------------------------------------|
A|----------------------------------------------------------------------------|
E|----------------------------------------------------------------------------|

Intro x2
Verse x1
Chorus x1
Interlude x1
Verse x1
Chorus x1
Solo x1
Verse x1
Chorus x2
************************************

| /   slide up
| \   slide down
| h   hammer-on
| p   pull-off
| ~   vibrato
| +   harmonic
| x   Mute note
| b   Bend
| pb  Pre-bend
| br  Bend release
| pbr Pre-bend release
| brb Bend release bend

************************************
Добавлено: 24.10.2015
Другие материалы по этой песне:
  • Аккорды и текст

Страница создана 24.10.2015
http://primanota.ru/james-coffey/nine-hundred-miles-chords.htm
Привет, Гость.
Предлагаем пройти революционный курс по гитаре.
Подарок от PrimaNota.Ru, забирай!