PrimaNota.ru - самый крупный в мире бесплатный архив песенных текстов, аккордов, табулатур и нот


James Cheal - White Walls - таба, видео

Регистрация Запомнить меня
Войти через:  Facebook Google Twitter Vk Yandex Mail.ru

James Cheal - White Walls - таба, видео

Печатать
Просмотров: 80
Уроки эстрадного вокала в Санкт-Петербурге
-------------------------------------------------------------------------------
                             White Walls ~ James Cheal
-------------------------------------------------------------------------------
Tabbed by: Zena Younis
E-mail: zenayounis9@gmail.com

Tuning: Standard

I realised that there are no tabs for this song, which seems like a crime for such a beautiful piece of music. 
So here it is. It sounds pretty accurate to my ears ;D

e|-----------------------------------------------------------------------------|
B|-----------------------------------------------------------------------------|
G|---------------------------0------------------------0------------------------|
D|------------------4-----------------------------------------4----------------|
A|----------2----------------------------------3-------------------------------|
E|----0--------------------------------0---------------------------------------|

e|-----------------------------------------------------------------------------|
B|-------------------3---------------------------------------------------------|
G|----------------------------2------------------------2------0----------------|
D|-----------0---------------------------------0-------------------------------|
A|-----------------------------------------------------------------------------|
E|----3---------------------------------2--------------------------------------|

This repeats throughout the whole song. 


************************************

| /   slide up
| \   slide down
| h   hammer-on
| p   pull-off
| ~   vibrato
| +   harmonic
| x   Mute note
| b   Bend
| pb  Pre-bend
| br  Bend release
| pbr Pre-bend release
| brb Bend release bend

************************************
Добавлено: 20.12.2015
Вам также может быть интересно:
Другие материалы по этой песне:
  • Аккорды и текст

Страница создана 20.12.2015
http://primanota.ru/james-cheal/white-walls-chords.htm
Привет, Гость.
Предлагаем пройти революционный курс по гитаре.
Подарок от PrimaNota.Ru, забирай!