PrimaNota.ru - самый крупный в мире бесплатный архив песенных текстов, аккордов, табулатур и нот


James Chatburn - Wait For The People - таба, видео

Регистрация Запомнить меня
Войти через:  Facebook Google Twitter Vk Yandex Mail.ru

James Chatburn - Wait For The People - таба, видео

Печатать
Просмотров: 60
Уроки эстрадного вокала в Санкт-Петербурге
------------------------
Wait for the People - James Chatburn
------------------------
Tabbed by: Nosnip
Tuning: Normal EADGBe
--This isn't exactly what James Chatburn plays but I think it's close

    1   2   3   4
e|--x---x---x---x---|
B|--2---6---4---2---|
G|--1---5---3---1---|
D|--2---6---4---2---|
A|--x---4---2---0---|
E|--2---x---x---x---|

INTRO
e|---------------------------------------------------------------------------------------------|
B|------------2-------------------------2-----------------------2-----------------------2------|
G|------------1-------------------------1-----------------------1-----------------------1------|
D|----2----------------2-------2----------------2-------2----------------2-------2------------2|
A|---------------------------------------------------------------------------------------------|
E|-2-----2---------2-------2-------2--------2-------2-------2--------2-------2-------2-----2---|

e|---------------------------------------------------------------------------------------------|
B|------------6-------------------------6-----------------------6------------------------6-----|
G|------------5-------------------------5-----------------------5------------------------5-----|
D|----6----------------6-------6----------------6-------6----------------6-------6-------------|
A|-4-----4---------4-------4-------4--------4-------4-------4--------4-------4-------4---------|
E|---------------------------------------------------------------------------------------------|

e|---------------------------------------------------------------------------------------------|
B|------------2-------------------------2-----------------------2-----------------------2------|
G|------------1-------------------------1-----------------------1-----------------------1------|
D|----2----------------2-------2----------------2-------2----------------2-------2------------2|
A|---------------------------------------------------------------------------------------------|
E|-2-----2---------2-------2-------2--------2-------2-------2--------2-------2-------2-----2---|

e|---------------------------------------------------------------------------------------------|
B|------------4-------------------------4-----------------------2------------------------2-----|
G|------------3-------------------------3-----------------------1------------------------1-----|
D|----4----------------4-------4----------------4-------2----------------2-------2-------------|
A|-2-----2---------2-------2-------2--------2-------0-------0--------0-------0-------0---------|
E|---------------------------------------------------------------------------------------------|

e|----------------------------------------------------|
B|------------------------2----------------------2----|
G|------------------------1----------------------1----|
D|--------2-------2---------------2-------2-----------|
A|---0-------0--------0-------0-------0-------0-------|
E|----------------------------------------------------|

VERSE X2(Exactly the same as the intro)
e|---------------------------------------------------------------------------------------------|
B|------------2-------------------------2-----------------------2-----------------------2------|
G|------------1-------------------------1-----------------------1-----------------------1------|
D|----2----------------2-------2----------------2-------2----------------2-------2------------2|
A|---------------------------------------------------------------------------------------------|
E|-2-----2---------2-------2-------2--------2-------2-------2--------2-------2-------2-----2---|

e|---------------------------------------------------------------------------------------------|
B|------------6-------------------------6-----------------------6------------------------6-----|
G|------------5-------------------------5-----------------------5------------------------5-----|
D|----6----------------6-------6----------------6-------6----------------6-------6-------------|
A|-4-----4---------4-------4-------4--------4-------4-------4--------4-------4-------4---------|
E|---------------------------------------------------------------------------------------------|

e|---------------------------------------------------------------------------------------------|
B|------------2-------------------------2-----------------------2-----------------------2------|
G|------------1-------------------------1-----------------------1-----------------------1------|
D|----2----------------2-------2----------------2-------2----------------2-------2------------2|
A|---------------------------------------------------------------------------------------------|
E|-2-----2---------2-------2-------2--------2-------2-------2--------2-------2-------2-----2---|

e|---------------------------------------------------------------------------------------------|
B|------------4-------------------------4-----------------------2------------------------2-----|
G|------------3-------------------------3-----------------------1------------------------1-----|
D|----4----------------4-------4----------------4-------2----------------2-------2-------------|
A|-2-----2---------2-------2-------2--------2-------0-------0--------0-------0-------0---------|
E|---------------------------------------------------------------------------------------------|

e|----------------------------------------------------|
B|------------------------2----------------------2----|
G|------------------------1----------------------1----|
D|--------2-------2---------------2-------2-----------|
A|---0-------0--------0-------0-------0-------0-------|
E|----------------------------------------------------|

CHORUS X2 (Wait for the people, wait for the people...)

At this part you have to mute the strings by relieving the pressure on the frets (left hand)
but keeping your fingers on the stings 
The parts where you have to push down on the frets are indicated with an x above them. 
It is the same for every line. Listen to the song if it doesn't make sense!

   X          x             x           x           x           x            x          x
e|---------------------------------------------------------------------------------------------|
B|------------2-------------------------2-----------------------2-----------------------2------|
G|------------1-------------------------1-----------------------1-----------------------1------|
D|----2----------------2-------2----------------2-------2----------------2-------2------------2|
A|---------------------------------------------------------------------------------------------|
E|-2-----2---------2-------2-------2--------2-------2-------2--------2-------2-------2-----2---|


   X          x             x           x           x           x            x          x
e|---------------------------------------------------------------------------------------------|
B|------------6-------------------------6-----------------------6------------------------6-----|
G|------------5-------------------------5-----------------------5------------------------5-----|
D|----6----------------6-------6----------------6-------6----------------6-------6-------------|
A|-4-----4---------4-------4-------4--------4-------4-------4--------4-------4-------4---------|
E|---------------------------------------------------------------------------------------------|


   X          x             x           x           x           x            x          x
e|---------------------------------------------------------------------------------------------|
B|------------2-------------------------2-----------------------2-----------------------2------|
G|------------1-------------------------1-----------------------1-----------------------1------|
D|----2----------------2-------2----------------2-------2----------------2-------2------------2|
A|---------------------------------------------------------------------------------------------|
E|-2-----2---------2-------2-------2--------2-------2-------2--------2-------2-------2-----2---|


   X          x             x           x           (play normally here)
e|---------------------------------------------------------------------------------------------|
B|------------4-------------------------4-----------------------2------------------------2-----|
G|------------3-------------------------3-----------------------1------------------------1-----|
D|----4----------------4-------4----------------4-------2----------------2-------2-------------|
A|-2-----2---------2-------2-------2--------2-------0-------0--------0-------0-------0---------|
E|---------------------------------------------------------------------------------------------|

VERSE X2
e|---------------------------------------------------------------------------------------------|
B|------------2-------------------------2-----------------------2-----------------------2------|
G|------------1-------------------------1-----------------------1-----------------------1------|
D|----2----------------2-------2----------------2-------2----------------2-------2------------2|
A|---------------------------------------------------------------------------------------------|
E|-2-----2---------2-------2-------2--------2-------2-------2--------2-------2-------2-----2---|

e|---------------------------------------------------------------------------------------------|
B|------------6-------------------------6-----------------------6------------------------6-----|
G|------------5-------------------------5-----------------------5------------------------5-----|
D|----6----------------6-------6----------------6-------6----------------6-------6-------------|
A|-4-----4---------4-------4-------4--------4-------4-------4--------4-------4-------4---------|
E|---------------------------------------------------------------------------------------------|

e|---------------------------------------------------------------------------------------------|
B|------------2-------------------------2-----------------------2-----------------------2------|
G|------------1-------------------------1-----------------------1-----------------------1------|
D|----2----------------2-------2----------------2-------2----------------2-------2------------2|
A|---------------------------------------------------------------------------------------------|
E|-2-----2---------2-------2-------2--------2-------2-------2--------2-------2-------2-----2---|

e|---------------------------------------------------------------------------------------------|
B|------------4-------------------------4-----------------------2------------------------2-----|
G|------------3-------------------------3-----------------------1------------------------1-----|
D|----4----------------4-------4----------------4-------2----------------2-------2-------------|
A|-2-----2---------2-------2-------2--------2-------0-------0--------0-------0-------0---------|
E|---------------------------------------------------------------------------------------------|

e|----------------------------------------------------|
B|------------------------2----------------------2----|
G|------------------------1----------------------1----|
D|--------2-------2---------------2-------2-----------|
A|---0-------0--------0-------0-------0-------0-------|
E|----------------------------------------------------|

CHORUS X2 You can play this the same as before or do the following

   Wait for the people   wait for the people  
e|-----------------|
B|--2---(hold)-----|
G|--1--------------|
D|--2--------------|
A|-----------------|
E|--2--------------|

   x          x             x           x           x           x            x          x
e|---------------------------------------------------------------------------------------------|
B|------------6-------------------------6-----------------------6------------------------6-----|
G|------------5-------------------------5-----------------------5------------------------5-----|
D|----6----------------6-------6----------------6-------6----------------6-------6-------------|
A|-4-----4---------4-------4-------4--------4-------4-------4--------4-------4-------4---------|
E|---------------------------------------------------------------------------------------------|

   Wait for the people   wait for the people  
e|---------------------------------------------------------------------------------------------|
B|--2---(hold)------------2-----------(release)------------------------------------------------|
G|--1---------------------1--------------------------------------------------------------------|
D|--2---------------------2--------------------------------------------------------------------|
A|---------------------------------------------------------------------------------------------|
E|--2---------------------2--------------------------------------------------------------------|


   X          x             x           x           (play normally here)
e|---------------------------------------------------------------------------------------------|
B|------------4-------------------------4-----------------------2------------------------2-----|
G|------------3-------------------------3-----------------------1------------------------1-----|
D|----4----------------4-------4----------------4-------2----------------2-------2-------------|
A|-2-----2---------2-------2-------2--------2-------0-------0--------0-------0-------0---------|
E|---------------------------------------------------------------------------------------------|

BRIDGE

    1   2   3   4
e|--x---x---x---x---|
B|--2---6---4---2---|
G|--1---5---3---1---|
D|--2---6---4---2---|
A|--x---4---2---0---|
E|--2---x---x---x---|

4
I've lingered way too long
       2
But my dignity has left
        1 
He said you and I don't belong
           3
I've got no patience for your kind I must confess
1
Already bought two packs and I
 3        2
[?] buy a third
   1
I gotta get home before the night ends

e|---------------------------------------------------------------------------------------------|
B|------------4-------------------------4-----------------------2------------------------2-----|
G|------------3-------------------------3-----------------------1------------------------1-----|
D|----4----------------4-------4----------------4-------2----------------2-------2-------------|
A|-2-----2---------2-------2-------2--------2-------0-------0--------0-------0-------0---------|
E|---------------------------------------------------------------------------------------------|

e|----------------------------------------------------|
B|------------------------2----------------------2----|
G|------------------------1----------------------1----|
D|--------2-------2---------------2-------2-----------|
A|---0-------0--------0-------0-------0-------0-------|
E|----------------------------------------------------|

CHORUS X2 You can play this the same as before or do the following

Wait for the peooooOOOooooooOOOOOoooooole
  x          x             x           x           x           x            x          x
e|---------------------------------------------------------------------------------------------|
B|------------2-------------------------2-----------------------2-----------------------2------|
G|------------1-------------------------1-----------------------1-----------------------1------|
D|----2----------------2-------2----------------2-------2----------------2-------2------------2|
A|---------------------------------------------------------------------------------------------|
E|-2-----2---------2-------2-------2--------2-------2-------2--------2-------2-------2-----2---|


   X          x             x           x           x           x            x          x
e|---------------------------------------------------------------------------------------------|
B|------------6-------------------------6-----------------------6------------------------6-----|
G|------------5-------------------------5-----------------------5------------------------5-----|
D|----6----------------6-------6----------------6-------6----------------6-------6-------------|
A|-4-----4---------4-------4-------4--------4-------4-------4--------4-------4-------4---------|
E|---------------------------------------------------------------------------------------------|

Wait for the peooooOOOooooooOOOOOoooooole
   X          x             x           x           x           x            x          x
e|---------------------------------------------------------------------------------------------|
B|------------2-------------------------2-----------------------2-----------------------2------|
G|------------1-------------------------1-----------------------1-----------------------1------|
D|----2----------------2-------2----------------2-------2----------------2-------2------------2|
A|---------------------------------------------------------------------------------------------|
E|-2-----2---------2-------2-------2--------2-------2-------2--------2-------2-------2-----2---|


   X          x             x           x           (play normally here)
e|---------------------------------------------------------------------------------------------|
B|------------4-------------------------4-----------------------2------------------------2-----|
G|------------3-------------------------3-----------------------1------------------------1-----|
D|----4----------------4-------4----------------4-------2----------------2-------2-------------|
A|-2-----2---------2-------2-------2--------2-------0-------0--------0-------0-------0---------|
E|---------------------------------------------------------------------------------------------|

Please let me know if there's anything wrong of if you can improve this at all 
Thanks!
Добавлено: 18.06.2016
Другие материалы по этой песне:
  • Аккорды и текст

Страница создана 18.06.2016
http://primanota.ru/james-chatburn/wait-for-people-chords.htm
Привет, Гость.
Предлагаем пройти революционный курс по гитаре.
Подарок от PrimaNota.Ru, забирай!