PrimaNota.ru - самый крупный в мире бесплатный архив песенных текстов, аккордов, табулатур и нот


James Brown - Soul Power - аккорды и текст, бас-таба, видео

Регистрация Запомнить меня
Войти через:  Facebook Google Twitter Vk Yandex Mail.ru

James Brown - Soul Power - аккорды и текст, бас-таба, видео

Печатать
Просмотров: 171
Soul Power
James Brown
Rhythem            / (upstroke)
[e--5-7-8----88-7-5-x-7--
B--6-6-6----66-6-6-x-6--
G--5-5-5----55-5-5-x-5--
D-----------------------
A-5------5-5------------
E-----------------------]

A thing 2
throw in is.
[e-------
B-------
G-------
D-------
A-3-555
E-------]
Solo Thingy
[e-9s10-10----------------------------
B-9s10-10----------------------------
G-9s10-10-10-----------------10-12p10
D-8s9--9----12-10-12-10-10h12--------
A-9s10-10----------------------------
E------------------------------------]
Turnaround!
[e--3~----------------
B--5~----------------
G--3~----------3-----
D--5~--3-55-3-5--3---
A--3~-5----5------5-3
E--0~----------------]
Tips..
-Dont palm mute, loosen you hand on the strings.
-For the rhythem, bar the 5th fret so u dont have 2 keep switching.
-For the solo thingy, use fingers bar the bottom 3 string w/ you ring
finger first, then add the other 2 fingers.
Добавлено: 26.10.2013
Другие материалы по этой песне:
  • Аккорды и текст

Страница создана 03.07.2012
http://primanota.ru/james-brown/soul-power-chords.htm
Привет, Гость.
Предлагаем пройти революционный курс по гитаре.
Подарок от PrimaNota.Ru, забирай!