PrimaNota.ru - самый крупный в мире бесплатный архив песенных текстов, аккордов, табулатур и нот


James Brown - Say It Loud - I'm Black And I'm Proud - текст песни, таба, видео

Регистрация Запомнить меня
Войти через:  Facebook Google Twitter Vk Yandex Mail.ru

James Brown - Say It Loud - I'm Black And I'm Proud - текст песни, таба, видео

Печатать
Просмотров: 65
Новый альбом группы 'Черный Кузнец' по культовому сериалу 'Сверхъестественное'!
"Say It Loud - I'm Black and I'm Proud"
by James Brown
Released as a single in 1968
 
Capo 1

[Main]

Play this for 38 measures.  This is the basic pattern.  Ad lib at will.

e|-------|-0-0-0-|-------|-0-0-0-0-x-x-x|---0-0-x-x-x-|-------|---0-0-0-0-x-x-x-|
B|-------|-1-1-1-|-------|-1-1-1-1-x-x-x|---1-1-x-x-x-|-------|---1-1-1-1-x-x-x-|
G|---2-0-|-2-2-2-|---2-0-|-2-2-2-2-x-x-x|---2-2-x-x-x-|---2-0-|---2-2-2-2-x-x-x-|
D|-------|-------|-------|--------------|-------------|-------|-----------------|
A|-0-----|-------|-0-----|--------------|-0-----------|-0-----|-0---------------|
E|-------|-------|-------|--------------|-------------|-------|-----------------|

[Bridge]

Then the first bridge is 10 measures long.
Play this basic pattern and ad lib at will.

e|---------x-x-x-|-----------------|
B|-----11\-x-x-x-|-----------------|
G|-/12-12\-x-x-x-|-----8---------8-|
D|---------------|-/10---8h10-10---|
A|---------------|-----------------|
E|---------------|-----------------|

Play main riff again for 22 measures.
Then play the bridge into fade out. 


************************************

| x   Dead note
| h   Hammer-on
| /   Slide up
| \   Slide down


************************************
Добавлено: 25.01.2018
Другие материалы по этой песне:
  • Аккорды и текст

Страница создана 22.03.2012
http://primanota.ru/james-brown/say-it-loud-im-black-and-im-proud-chords.htm
Привет, Гость.
Предлагаем пройти революционный курс по гитаре.
Подарок от PrimaNota.Ru, забирай!