PrimaNota.ru - самый крупный в мире бесплатный архив песенных текстов, аккордов, табулатур и нот


James Brown - Papa - аккорды и текст, видео

Регистрация Запомнить меня
Войти через:  Facebook Google Twitter Vk Yandex Mail.ru

James Brown - Papa - аккорды и текст, видео

Печатать
Просмотров: 83
Papa
James Brown
Main Riff               Funky Rhythm
[e-------------------           e-9-9--9---10/11-11-10-
b-------------------           b-9-9--9---10/11-11-10-]
[g-------------------]Repeat     [g-9-9--9---10/11-11-10-]Repeat
[d-------------------           d----------------------
a-----7-5-7-----5-7-           a----------------------
e-0-0-------5-7-----           e----------------------]
  1   2   3    4         1    2  3     4
 
Pre-Chorus
[e------------------------------------------------
b------------------------------------------------
g------------------------------%-----------------
d------------------------------------------------
a-7-7--7--7--7---7--7--7--7----------7--7--7-----
e-0-0--0--0--0---0--0--0--0----------0--0--0-1-2-]
  1   2  3  4   1  2  3  4            1  2   3  4

Chorus
[e-----------------------------------------------------
b-----------------------------------------------------
g---------------------%------------------9--7---7-----
d-----5-3-5-----3-5--4 times------8-8--------9----9-7
a-----------3-5---------------------------------------
e-3-3-------------------------6-----------------------]
  1   2   3    4                1 2   3 4   1  2   3  4

[e-----------------
b-----------------]
[g-----------------]  Back to
[d-9-9-7-5-7-5-----]  Main Riff
[a-------------7-5--7-
e-----------------]
  1   2   3   4

Ad lib the main riff under solo.
Move up to A for outro.
Добавлено: 23.09.2013
Другие материалы по этой песне:
  • Аккорды и текст

Страница создана 23.09.2013
http://primanota.ru/james-brown/papa-chords.htm
Привет, Гость.
Предлагаем пройти революционный курс по гитаре.
Подарок от PrimaNota.Ru, забирай!