PrimaNota.ru - самый крупный в мире бесплатный архив песенных текстов, аккордов, табулатур и нот


James Brown - Get Up (sex Machine) - аккорды и текст, видео

Регистрация Запомнить меня
Войти через:  Facebook Google Twitter Vk Yandex Mail.ru

James Brown - Get Up (sex Machine) - аккорды и текст, видео

Печатать
Просмотров: 141
Get Up (sex Machine)
James Brown
Intro
(And 1, 2, 3, 4)
[E--11--11--11--11--11--11--11--
B--11--11--11--11--11--11--11--
G------------------------------
D------------------------------
A------------------------------
E------------------------------]

NORMAL VERSE (Get Up)
[E--6----6----8----6--
B--6----6----6----6--
G--------------------
D--------------------
A--------------------
E--------------------]
Get up, get up, get up
get on up, stay on the scene
get on up, like a Sex Machine.
Get on up, get up
Shake your arm then use your form.
Stay on the scene like a Sex Machine.
You gotta have the feeling sure as you're born.
Get it together right on right on
get up
get up
get up.
I said the feeling you got to get
give me the fever in a cold sweat.

BRIDGE - (Hit Me Now)
[E--13----11--9--10--11--
B--13----11--9--10--11--
G-----------------------
D-----------------------
A-----------------------
E-----------------------]
Hit Me now
The way I like it is the way it is.
I got mine and don't worry about his.

NORMAL VERSE
Get up
get up...
You got to have the feeling get on up
sure as born get on up.
Get it together right on
right on, right on,..
Get up
get on up
get up
get on up
and then shake your money maker.
Shake your money maker
shake your money maker

FINAL:		[E--11--11--11--11--11--11--11--
B--11--11--11--11--11--11--11--
G------------------------------
D------------------------------
A------------------------------
E------------------------------]
Добавлено: 26.12.2013
Другие материалы по этой песне:
  • Аккорды и текст

Страница создана 26.12.2013
http://primanota.ru/james-brown/get-up-sex-machine-chords.htm
Привет, Гость.
Предлагаем пройти революционный курс по гитаре.
Подарок от PrimaNota.Ru, забирай!