PrimaNota.ru - самый крупный в мире бесплатный архив песенных текстов, аккордов, табулатур и нот


James Brown - Get up i Feel Like Being a Sex Machine - аккорды и текст, видео

Регистрация Запомнить меня
Войти через:  Facebook Google Twitter Vk Yandex Mail.ru

James Brown - Get up i Feel Like Being a Sex Machine - аккорды и текст, видео

Печатать
Просмотров: 217
Авторы: James Brown, Ron Lenhoff, Bobby Byrd

Get up i Feel Like Being a Sex Machine
James Brown
Intro:		[E--11--11--11--11--11--11--11--
B--11--11--11--11--11--11--11--
G------------------------------
D------------------------------
A------------------------------
E------------------------------]
 
The rest of the song is basically in two parts...
The normal verse and the bridge.

NORMAL VERSE - (PART ONE: This is repeated about 30 times,
so listen to the album for time changes)
[E--6----6----8----6--
B--6----6----6----6--
G--------------------
D--------------------
A--------------------
E--------------------]

BRIDGE - (This is also repeated a lot, so listen
to the album for time changes)
[E--13----11--9--10--11--
B--13----11--9--10--11--
G-----------------------
D-----------------------
A-----------------------
E-----------------------]

Now, they go back into the normal verse,
but first they play this Intro to the regular verse:

BACK INTO REGULAR VERSE (Not sure on this part,
it doesn't sound right so, someone please help me!)
[E--6--6--6--6--6--6--6--
B--6--6--6--6--6--6--6--
G-----------------------
D-----------------------
A-----------------------
E-----------------------]

Back to regular verse now, but first chord played only once:

REGULAR VERSE - (PART TWO: Check album for time changes)
[E--6----8----6--
B--6----6----6--
G---------------
D---------------
A---------------
E---------------]

This part played to finish song. Play the same thing as the
BACK TO REGULAR VERSE part. I am unsure that is the right
chord however, so someone please help me out!
So there you have it. A great funky groove.
Добавлено: 09.09.2013
Другие материалы по этой песне:
  • Аккорды и текст

Страница создана 11.05.2012
http://primanota.ru/james-brown/get-up-i-feel-like-being-a-sex-machine-chords.htm
Привет, Гость.
Предлагаем пройти революционный курс по гитаре.
Подарок от PrimaNota.Ru, забирай!