PrimaNota.ru - самый крупный в мире бесплатный архив песенных текстов, аккордов, табулатур и нот


James Brown - Cold Sweat - аккорды и текст, бас-таба, видео

Регистрация Запомнить меня
Войти через:  Facebook Google Twitter Vk Yandex Mail.ru

James Brown - Cold Sweat - аккорды и текст, бас-таба, видео

Печатать
Просмотров: 184
Авторы музыки: James Brown, Pee Wee Ellis
Авторы текста: James Brown, Pee Wee Ellis
Cold Sweat
James Brown
The timing on this is funky and only approximate because the triplet is
really more swing time. Listen to the song and it'll be easy.

Riff 1  (Main Riff in verse and Solo)
       Triplet
[G -----7--------7-----------------
D ----------7---------------------
A 5---5-----------5-------------3-
E ------------------2---3-3-4-4---]
  1   2   3   4   1   2   3   4
Often the walking bass has notes omitted

Riff 2  (Bridge)
[G -----5--------------------------
D ----------5---------------------
A 3---3---------3-3---------------
E ------------------0---1---2-2-3-]
  1   2   3   4   1   2   3   4

Riff 3  (Break)
[G ----------------------------------------------------------------
D --2---3---4---5--------------------3---4---5--------------------
A ----------------------------------------------------------------
E ----------------------------------------------------3-----------]
  1   2   3   4   1   2   3   4               Hold this note

This break sounds strange because it's not what the horns are playing
(especially the second time through).

Basic structure...
Intro: Riff1 } 2x
       Riff1 } 8x
       Riff2 } 5x
       Riff3 } 1x
Добавлено: 11.02.2014
Другие материалы по этой песне:

Страница создана 01.05.2012
http://primanota.ru/james-brown/cold-sweat-chords.htm
Привет, Гость.
Предлагаем пройти революционный курс по гитаре.
Подарок от PrimaNota.Ru, забирай!