PrimaNota.ru - самый крупный в мире бесплатный архив песенных текстов, аккордов, табулатур и нот


James Arthur - Gbp - таба, видео

Регистрация Запомнить меня
Войти через:  Facebook Google Twitter Vk Yandex Mail.ru

James Arthur - Gbp - таба, видео

Печатать
Просмотров: 527
-------------------------------------------------------------------------------
                             GBP - James Arthur
-------------------------------------------------------------------------------
Tabbed by: Daniel Hellen


Tuning: Drop D

Verse - This is a imagery just know it's tongue in cheek....

        Oh look at me now making GBP ........


e|--x----x----x----x-----------------|
B|--x----x----x----x-----------------|
G|--7----x----x----x-----------------|
D|--8----10---10---12----------------|
A|--5----8----8----10----------------|
D|--5----8----0----10----------------|


Chorus - Oh come on put your hands up if you feel me........


e|--x----x----x----x-----------------|
B|--x----x----x----x-----------------|
G|--3----5----7----10----------------|
D|--1----3----5----10----------------|
A|--1----3----5----8-----------------|
D|--1----3----5----8-----------------|


Verse - Oh nana, Whats my name i can make the magic happen like im david baine....


e|--x----x----x----x-----------------|
B|--x----x----x----x-----------------|
G|--7----x----x----x-----------------|
D|--8----10---10---12----------------|
A|--5----8----8----10----------------|
D|--5----8----0----10----------------|


Ending - When i say Oh, you say Oh .....


e|--x----x----x----x-----------------|
B|--x----x----x----x-----------------|
G|--3----5----7----10----------------|
D|--1----3----5----10----------------|
A|--1----3----5----8-----------------|
D|--1----3----5----8-----------------|
Добавлено: 08.09.2013
Другие материалы по этой песне:
  • Аккорды и текст

Страница создана 08.09.2013
http://primanota.ru/james-arthur/gbp-chords.htm
Привет, Гость.
Предлагаем пройти революционный курс по гитаре.
Подарок от PrimaNota.Ru, забирай!