PrimaNota.ru - самый крупный в мире бесплатный архив песенных текстов, аккордов, табулатур и нот


Jam - Little Boy Soldiers - текст песни, таба, видео

Регистрация Запомнить меня
Войти через:  Facebook Google Twitter Vk Yandex Mail.ru

Jam - Little Boy Soldiers - текст песни, таба, видео

Печатать
Просмотров: 138
			LITTLE BOY SOLDIERS - The Jam

[RIFF 1]:
e|-------------------------------------------------------------------------|
B|-------------------------------------------------------------------------|
G|-------------------------------------------------------------------------|
D|-------------------------------------------------------------------------|
A|-7--7-7-7--7-7-7--4--2--0-----0--0-0-0--0-0-0--0--4--7-------------------|
E|-------------------------------------------------------------------------|


[RIFF 2]:
e|-------------------------------------------------------------------------|
B|-------------------------------------------------------------------------|
G|-------------------------------------------------------------------------|
D|-------------------------------------------------------------------------|
A|-9--9-9-9--9-9-9--6--4--2-----2--2-2-2--2-2-2--2--6--9-------------------|
E|-------------------------------------------------------------------------|


[RIFF 3]:
e|-------------------------------------------------------------------------|
B|-------------------------------------------------------------------------|
G|-------------------------------------------------------------------------|
D|-7--7-7-7--7-7-7--4--2--0-----0--0-0-0--0-0-0--0--4--7-------------------|
A|-------------------------------------------------------------------------|
E|-------------------------------------------------------------------------|


CHORDS USED:
	E   - X79997
	D#m - X68876
	C#m - X46654
	B   - X24442
	C   - X32010
	D   - XX0232
	E   - 022100
	G   - 320003
	Em  - 022000
	Am  - X02210
	A   - X02220


INTRO:
e|---0-----0-----0-----0---------------------------------------------------|
B|--3-3---3-3---3-3---3-3--------------------------------------------------|
G|-0-----0-----0-----0-----------------------------------------------------|
D|-------------------------------------------------------------------------|
A|-------------------------------------------------------------------------|
E|-------------------------------------------------------------------------|



e|---0----------0-------------0------------2-------------------------------|
B|--3-3--------3-3-----------1-1----------3-3------------------------------|
G|-0----------0-------------0------------2---------------------------------|
D|-------------------------------------------------------------------------|
A|-------------------------------------------------------------------------|
E|-------------------------------------------------------------------------|
   It's funny how you never knew what my name was


e|---0---------0-------------0------------2--------------------------------|
B|--3-3-------3-3-----------1-1----------3-3-------------------------------|
G|-0---------0-------------0------------2----------------------------------|
D|-------------------------------------------------------------------------|
A|-------------------------------------------------------------------------|
E|-------------------------------------------------------------------------|
   Our only contact was a form for the election


E            D#m       C#m     B
These days I find that I don't listen,
E            D#m             C#m    B
These days I find that we're out of touch,
E            D#m       C#m     B
These days I find that I'm too busy,
   E       D#m               C#m     B
So why the attention now you want my assistance -
C             D        E
What have you done for me?


G                   C           D
You've gone and got yourself in trouble,
G                  C        D
Now you want me to help you out.

E            D#m       C#m        B
These days I find that I can't be bothered,
E            D#m            C#m     B
These days I find that it's all too much,
   E         D#m     C#m     B
To pick up a gun and shoot a stranger,
    E           D#m       C#m    B
But I've got no choice so here I come
C   D   E
war games.


[Rick Buckler's Drum Solo]


RIFF1

    RIFF 1
I'm up on the hills, playing little boy soldiers,
RIFF 1
Reconnaissance duty up at 5:30.
RIFF 1
Shoot shoot shoot and kill the natives,
RIFF 1
You're one of us and we love you for that.

RIFF 2
Think of honour, Queen and country,
         RIFF 2
You're a blessed son of the British Empire,
      RIFF 2
God's on our side and so is Washington.
 
     RIFF3
Come out on the hills with the little boy soldiers,
    RIFF3
I'm up on the hills, playing little boy soldiers,
     RIFF3
Come out on the hills, playing little boy soldiers.


G          Em          G          Em
Come on outside - I'll sing you a lullaby,
   Am     Em          Am       Em
Or tell a tale of how goodness prevailed.
   G         Em         G          Em
We ruled the world - we killed and robbed,
    Am      Em        Am            Em
The fucking lot - but we don't feel bad.


       F                C         G     Am
It was done beneath the flag of democracy,
       G  F          Am         G
You'll believe and I do - yes I do - yes I do -
      F                     Am                G
yes I do - yes I do - yes I do-oo-oo-oo-oo-oo-o


E            D#m       C#m        B
These days I find that I can't be bothered,
   E     D#m            C#m        B
To argue with them well what's the point,
          E         D#m       C#m       B
Better to take your shots and drop down dead,
          E        D#m       C#m      B
then they send you home in a pine overcoat
C      D              E
With a letter to your mum
       E      D#m        C#m       B           A
Saying find enclosed one son - one medal and a note -
   B      E
to say he won.
Добавлено: 05.04.2012
Другие материалы по этой песне:
  • Аккорды и текст

Страница создана 22.02.2012
http://primanota.ru/jam/little-boy-soldiers-chords.htm
Привет, Гость.
Предлагаем пройти революционный курс по гитаре.
Подарок от PrimaNota.Ru, забирай!