PrimaNota.ru - самый крупный в мире бесплатный архив песенных текстов, аккордов, табулатур и нот


Jam - Kilos Kabataan - аккорды и текст, видео

Регистрация Запомнить меня
Войти через:  Facebook Google Twitter Vk Yandex Mail.ru

Jam - Kilos Kabataan - аккорды и текст, видео

Печатать
Просмотров: 67
Kilos Kabataan
Jam
ung base lang ung tinab ko. gawin niyo na lang power chords. salamat. sorry tamad hahaha

Intro:  A|--4--|
e|----------------------------------|
B|----------------------------------|
G|----------------------------------|
D|----------------------------------|  x2
A|---4------------------------------|
E|------4---6---2/1-2/1-------------|  

e|---13-----11----------------------|
B|------14-----11-------------------|
G|----------------13-10-11----------|
D|-------------------------11-------|  
A|----------------------------------|
E|----------------------------------|

e|---13-----11----------------------|
B|------14-----11-------10----------|
G|----------------13-10-------------|
D|----------------------------------|  
A|----------------------------------|
E|----------------------------------|   
 
Verse: 
e|-----------------------------------|
B|-----------------------------------|
G|-----------------------------------|
D|---------3-------------------------|  x2
A|---1--3------1---3---5--3--1--6----|
E|-----------------------------------| then E|--1--|
Pre Chorus
e|----------------------------------|
B|----------------------------------|
G|----------------------------------|
D|----------------------------------|  
A|----------------------------------|
E|--3--1--3--5------3--1--2--4------|   
Chorus: 
e|-------------------|-----------------------|
B|-------------------|-----------------------|
G|-------------------|-----------------------|
D|-------------------|-----------------------|  
A|---4-----6---------|--4----6---------------|
E|------4-----2--4---|-----4----2--4--6---2--|   
Bridge
e|----------------------------------|
B|----------------------------------|
G|----------------------------------|
D|----------------------------------|  
A|----------------------------------|
E|--2--3--4--5--6-------------------|

e|----------------------------|
B|----------------------------|
G|--12----10------------------|
D|-----13----10--8------------|  
A|-----------------8--10------|
E|----------------------------|
Добавлено: 17.11.2015
Вам также может быть интересно:
Другие материалы по этой песне:
  • Аккорды и текст

Страница создана 17.11.2015
http://primanota.ru/jam/kilos-kabataan-chords.htm
Привет, Гость.
Предлагаем пройти революционный курс по гитаре.
Подарок от PrimaNota.Ru, забирай!