PrimaNota.ru - самый крупный в мире бесплатный архив песенных текстов, аккордов, табулатур и нот


Jam Project - Yakusoku No Chi - аккорды и текст, видео

Регистрация Запомнить меня
Войти через:  Facebook Google Twitter Vk Yandex Mail.ru

Jam Project - Yakusoku No Chi - аккорды и текст, видео

Печатать
Просмотров: 125
Уроки эстрадного вокала в Санкт-Петербурге
Yakusoku No Chi
Jam Project
Official band website (Japanese) http://jamjamsite.com/en/

-------------------------------------------------------------------------------
                            Yakusoku no Chi - JAM Project
-------------------------------------------------------------------------------

Super Robot Wars MX song by the one and only JAM Project! Please enjoy and feel free to
make corrections!

Tabbed by: Jen Zee
Twitter: 0jenzee0 


Capo 2


Intro:
e|----------------------------------------------------------------------------|
B|---------------------------------------0-3-0--------------------------------|
G|-----0------------0-0---0----------0-2-------2------------------------------|
D|------4-2-0-------0-0----4-2-0-2-4------------------------------------------|
G|------------2-0-2-2-2-------------------------------------------------------|
E|----------------------------------------------------------------------------|

                                                      Strumming        Strumming
e|----------------------------------------------------0-0-0-0----------0-0-0-0-------|
B|---------------------------------------0-3-0--------0-0-0-0----------0-0-0-0-------|
G|-----0------------0-0---0----------0-2-------2-0----0-0-0-0----------0-0-0-0-------|
D|------4-2-0-------0-0----4-2-0-2-4--------------4-2---------0--2p0---2-2-2-2-------|
G|------------2-0-2-2-2----------------------------------------------2-2-2-2-2-------|
E|-----------------------------------------------------------------------------------|


e|---------------------------------------------------------------------------|
B|---------------------------------------------------------------------------|
G|---------------------------------------------------------------------------|
D|---------------0-2---------------------------------------------------------|
G|-----------0-2-------------------------------------------------------------|
E|-----0-2-3-----------------------------------------------------------------|




You may want to alternate the Am with Asus4 on the upstroke

Asus4
e|-0-|
B|-3-|
G|-2-|
D|-2-|
G|-0-|
E|-0-|

Esus2
e|-2-|
B|-0-|
G|-0-|
D|-2-|
G|-2-|
E|-2-|


Em                    
Kouya ni Ochiru Taiyou Akaku Moenagara
Am              G  Esus2 Em     Am    D    Em  D5
Owaru Koto Shiranai Tatakai ni Idonde ha Kieru

Em
Nanika wo Mamoru Tame Iru Kimi wo Shinjiteru
Am              G Esus2 Em     Am    D    Em
Sakaraenu Shyukumei wo Kyou mo Ikiteru Yuuki



BRIDGE

Am              
Miageta Yozora ha Tooku
                                G
Sono Saki ni Hirogaru Ginga heto Tsuzuku (eternity)
Em       D         C         Em   D   C            Em
Kimi no Kokoro Koe, Kizuna, Bokura heto Tsunagatteiru


CHORUS 1
       C   D        Em             C  D               G
Maiagaru Kaze ni Yukue Michibikare my long & winding road
            C       D        Em   Am   G
Doko he Yukou... Tada Hitotsu Shinjitsu ha
      C             G
Yume ni (Yume ni) Asu ni (Asu ni)
           Am  D     Em   G  D
Hikari wo Todoketai dake


*** Play Intro riff again but finish with third phrase played backward:

e|---------------------------------------------------------------------------|
B|---------------------------------------------------------------------------|
G|---------------------------------------------------------------------------|
D|--2-0----------------------------------------------------------------------|
G|-------2-0-----------------------------------------------------------------|
E|-----------3-2-0-------------------------------------------------------------|



Em                                             Am
Zetsubou no Fuchi ga Moshimo Me no Mae ni Kitara
Am              G            D          Em
Hitomi no Oku Yakitsuketa Yuushi Omoidasou
Em                                       Am
Nanika wo Mamoru Tame Aru Jibun wo Shinjitai
Am               G                  Am  D           Em
Hitori Jyanai Ima Yume Kataru Toki mo Tatakau Toki mo


BRIDGE 2

Am
Eien no Rinne ha Itsumo
                           G
Ayatsuraru youni Ginga heto Kaeru (reincarnation)
     Em    D         C         Em   D   C                Em
Kimi no Kokoro no Koe, Tadori Obiezu ni Mae dake wo Mita


CHORUS 2
       C   D        Em          C          D         G
Osoreruna Kimi ha Zutto Ikitekita your long & winding road
        C        D       Em   Am   G
Korekara mo Hokori wo Mochi Tsuzukero
      C      G
Yume ga Asu ga 
       Am       D     Em
Hikari ni Michiterukara


PAN PIPE(?) SOLO!!!!!

REFRAIN 1

Em      D      C            Em   D   C             
Kimi no Kokoro Koe, Kizuna, Bokura heto
       C   D        Em             C  D               G
Maiagaru Kaze ni Yukue Michibikare my long & winding road
            C       D         Em Am     G
Doko he Yukou... Tada Hitotsu Shinjitsu ha
   C        G
Yume ni Asu ni
        Am      D     Em
Hikari wo Todoketai dake


REFRAIN
       C   D        Em        C         D              G
Osoreruna Kimi ha Zutto Ikitekita your long & winding road
         C     D       Em    Am     G
Korekara mo Hokori wo Mochi Tsuzukero
      C      G
Yume ga Asu ga 
       Am     D     Em
Hikari ni Michiterukara

************************************
Добавлено: 17.12.2015
Другие материалы по этой песне:
  • Аккорды и текст

Страница создана 17.12.2015
http://primanota.ru/jam-project/yakusoku-no-chi-chords.htm
Привет, Гость.
Предлагаем пройти революционный курс по гитаре.
Подарок от PrimaNota.Ru, забирай!