PrimaNota.ru - самый крупный в мире бесплатный архив песенных текстов, аккордов, табулатур и нот


Jal - Bikhra Houn Mein - таба, видео

Регистрация Запомнить меня
Войти через:  Facebook Google Twitter Vk Yandex Mail.ru

Jal - Bikhra Houn Mein - таба, видео

Печатать
Просмотров: 106
Song = Bikhra Houn Mein [Unplugged]
Band = Jal
Tabbed by Umar
comments @ umarboy@hotmail.com


e------0---0---------0---0---------------|
B-------0---0---------0---0--------------|
G---6----6---6----6----6---6-------------|
D--6-6-----------6-6---------------------|
A-4-------------4------------------------|
E----------------------------------------|


e------0---0-----------------------------|
B-------0---0----------------------------|
G---6----6---6---------------------------|
D--6-6-----------------------------------|
A-4--------------------------------------|
E----------------------------------------|
 mana bikhra hoon mein abhi


e------0---0----------------------------|
B-------0---0---------------------------|
G---2----2---2--------------------------|
D--2-2----------------------------------|
A-0-------------------------------------|
E---------------------------------------|
meinay khawabb perooii thay..........!

e------0---0-----------------------------|
B-------0---0----------------------------|
G---6----6---6--6---2-2-2-2--4-4-4-------|
D--6-6----------6---2-2-2-2--4-4-4-------|
A-4-------------4---0-0-0-0--2-2-2-------|
E----------------------------------------|
teri sasoon mein ghum ho abhi ........meri chahat adhoori hai...............!


e--------------------------------------|
B--------------------------------------|
G-6-*-6-*-6-*-6-*-6--------------------|
D-6-*-6-*-6-*-6-*-6--------------------|
A-4-*-4-*-4-*-4-*-4--------------------|
E--------------------------------------|

e-------------------------------------------------------|
B-4-4-4-5-*-4-5-----------------------------------------|
G-6-6-6-6-*-6-6----[Strumming pattern similar to addat--|x2
D-6-6-6-6-*-6-6-----------------------------------------|
A-4-4-4-4-*-4-4-----------------------------------------|
E-------------------------------------------------------|


e-4-4-4-4-*-4-4-4----------------------------|
B-4-4-4-5-*-4-4-5----------------------------|
G-6-6-6-6-*-6-6-6----------------------------|x2
D-6-6-6-6-*-6-6-6----------------------------|
A--------------------------------------------|
E--------------------------------------------|

e-x-x-x-x----------------------------------|
B-x-x-x-x----------------------------------|
G-6-6-6-6--etc etc-------------------------|
D-6-6-6-6----------------------------------|
A-4-4-4-4----------------------------------|
E-x-x-x--x---------------------------------|
mushkilain jab bhi aa


e--------------------------------------|
B--------------------------------------|
G-4-4-4-4------------------------------|
D-4-4-4-4------------------------------|
A-2-2-2-2------------------------------|
E-x-x-x-x------------------------------|
 ahjain gi

e-x-x-x-x--x--------------------------------|
B-x-x-x-x--x--------------------------------|
G-2-2-2-2--2--------------------------------|
D-2-2-2-2--2--------------------------------|
A-x-x-x-x--x--------------------------------|
E-x-x-x-x--x--------------------------------|
dard had se guzar


e-x-x-x-x----------------------------------|
B-x-x-x-x----------------------------------|
G-4-4-4-4----------------------------------|
D-4-4-4-4----------------------------------|
A-2-2-2-2----------------------------------|
E-x-x-x-x----------------------------------|
jaiga.....!

e-x-x-x-x----------------------------------|
B-x-x-x-x----------------------------------|
G-6-6-6-6--etc etc-------------------------|
D-6-6-6-6----------------------------------|
A-4-4-4-4----------------------------------|
E-x-x-x--x---------------------------------|
koi ghum na phir hoga


e--------------------------------------|
B--------------------------------------|
G-4-4-4-4------------------------------|
D-4-4-4-4------------------------------|
A-2-2-2-2------------------------------|
E-x-x-x-x------------------------------|
mujhe gar

e-x-x-x-x--x---------------------------------|
B-x-x-x-x--x---------------------------------|
G-2-2-2-2--2---------------------------------|
D-2-2-2-2--2---------------------------------|
A-x-x-x-x--x---------------------------------|
E-x-x-x-x--x---------------------------------|
khawabon mein tum


e-x-x-x-x----------------------------------|
B-x-x-x-x----------------------------------|
G-4-4-4-4----------------------------------|
D-4-4-4-4----------------------------------|
A-2-2-2-2----------------------------------|
E-x-x-x-x----------------------------------|
ahoon gay

e-x-x-x-x----------------------------------|
B-x-x-x-x----------------------------------|
G-6-6-6-6--etc etc-------------------------|
D-6-6-6-6----------------------------------|
A-4-4-4-4----------------------------------|
E-x-x-x--x---------------------------------|
ab tou addat si hai

e--------------------------------------|
B--------------------------------------|
G-4-4-4-4------------------------------|
D-4-4-4-4------------------------------|
A-2-2-2-2------------------------------|
E-x-x-x-x------------------------------|
Muj ko

e-x-x-x-x--x--------------------------------|
B-x-x-x-x--x--------------------------------|
G-2-2-2-2--2--------------------------------|
D-2-2-2-2--2--------------------------------|
A-x-x-x-x--x--------------------------------|
E-x-x-x-x--x--------------------------------|
asay jeenay


e-x-x-x-x----------------------------------|
B-x-x-x-x----------------------------------|
G-4-4-4-4----------------------------------|
D-4-4-4-4----------------------------------|
A-2-2-2-2----------------------------------|
E-x-x-x-x----------------------------------|
Mein


The Rest of the song..in a similar pattern...i cant explain this any better than this :D
by the way for those of you who are still confused abt what i TABbed
should get the song "bikhra houn mein" by Jal..which they sung live @ THE MUZIK[Must Wanted]
the video is available on Internet...
anyways..peace out guyz
Добавлено: 28.06.2012
Другие материалы по этой песне:
  • Аккорды и текст

Страница создана 28.06.2012
http://primanota.ru/jal/bikhra-houn-mein-chords.htm
Привет, Гость.
Предлагаем пройти революционный курс по гитаре.
Подарок от PrimaNota.Ru, забирай!