PrimaNota.ru - самый крупный в мире бесплатный архив песенных текстов, аккордов, табулатур и нот


Jal - Bikhra Hon Main - таба, видео

Регистрация Запомнить меня
Войти через:  Facebook Google Twitter Vk Yandex Mail.ru

Jal - Bikhra Hon Main - таба, видео

Печатать
Просмотров: 130
____________________________________________________________________________

 --------------------------
| TABBED BY ORANGE GUITAR  |
 -------------------------
____________________________________________________________________________

Here is the intro!

|---------------0---------------------------|
|-----------------0-------------------------|
|----------6--------6-----------------------|
|--------6----6-----------------------------|
|------4------------------------------------|
|-------------------------------------------|


Repeat the same pattern of arpegio on chords (024400) and (002200) with the lyrics given 
timing yourself

____________________________________________________________________________

|______________________________________|
|                                      |
| Mana bikhra hoon main abhi           |
| Main nay khawaab peroay thay         |
| Teree saansoon main gum hoon abhi    |
| Mairee chahat adhoore hay            |
|______________________________________|

____________________________________________________________________________

This is the fast acoustic part...it is original !!!!


|-------------------------------------------|
|-------4s5-5-5-5-5-4-5-5-7-5-4-------------|
|-------------------------------------------|
|-------------------------------------------| x4
|-------------------------------------------|
|-------------------------------------------|

____________________________________________________________________________

Then the electric guitar plays this:

|--x-x-x-|
|--x-x-x-|
|--9-7-9-|continue strumming with mutes (he also repeats this part...listen to song)
|--x-x-x-|
|--x-x-x-|
|--x-x-x-|

|--x-x-x--|
|--x-x-x--|
|--9-7-11-|continue strumming (resumes to 11-9-7 and repeats sometimes)
|--x-x-x--|
|--x-x-x--|
|--x-x-x--|

____________________________________________________________________________

Addat solo is now played with distortion!


|---4-5-4-4-4----------------------------------|
|---------------7-5-4-4-4--4-5-4-2-5-5-5s7s5-4-|
|----------------------------------------------|
|----------------------------------------------|
|----------------------------------------------|
|----------------------------------------------|


                                                  play this part faster
|--4-5-4-4--7-9-7-9s11-9s7-7-7-7s5-5h7-5-4-4h5p4-0-------------------------|
|----------------------------------------------------4-5-4-----------------|
|----------------------------------------------------------6-4-------------| 
|--------------------------------------------------------------6-4-2-------|
|--------------------------------------------------------------------------|
|--------------------------------------------------------------------------|

(you can add hammer and pulls in ending)
____________________________________________________________________________

Strumming:

c#m---------------------B-----------------------------A-------B
mushkilain jab bhee a jaye gee dard had say guzar jayee gaaa

Play other lines with similar pattern

____________________________________________________________________________

Power Chords here!!!

(x466xx)---------------(x244xx)------------(x022xx)------(x244x)
Ab to Aadat see hay mugh ko aisay jeenay main

Aadat Strumming (Strange thing...aadat strumming is same as of Lamhay....as I have 
posted a sound file  in the forum)

____________________________________________________________________________

Shuffle these chords fastly with aaaaaaaa.... part:

(x466xx),(x4665x) (2x), then (x022xx),(x244xx)      ...adjust timing yourself!
[fast switching]
____________________________________________________________________________

Play aadat intro with these chords : (x46644),(x46654),(x47644),(x47654)

Play some power chords are played which are given above.
____________________________________________________________________________

The song ends with aadat's outro...just a slight variation with arpeggios (actually he 
the arpeggio).....
he just dont plucks the last three strings at one time....pluck them one bu 
are same as I have given
in Aadat's version.
____________________________________________________________________________

: SUGGESTION AND COMMENTS ARE WELCOME AT MY EMAIL ADDRESS : ghanchu@hotmail.com
____________________________________________________________________________
Добавлено: 08.06.2012
Другие материалы по этой песне:
  • Аккорды и текст

Страница создана 13.03.2012
http://primanota.ru/jal/bikhra-hon-main-chords.htm
Привет, Гость.
Предлагаем пройти революционный курс по гитаре.
Подарок от PrimaNota.Ru, забирай!