PrimaNota.ru - самый крупный в мире бесплатный архив песенных текстов, аккордов, табулатур и нот


Jake Kaufman - Pridemoor Keep - In The Halls Of The Usurper Shovel Knight Ost - таба, видео

Регистрация Запомнить меня
Войти через:  Facebook Google Twitter Vk Yandex Mail.ru

Jake Kaufman - Pridemoor Keep - In The Halls Of The Usurper Shovel Knight Ost - таба, видео

Печатать
Просмотров: 122
-------------------------------------------------------------------------------
In The Halls Of The Usurper (Pridemoor Keep) - Jake Kaufman
-------------------------------------------------------------------------------
Tabbed by: HERF (@spicygaysammi)
Link to song: https://www.youtube.com/watch?v=3PtA4hYUJzg
Twitter:

Song structure: Chorus-Verse-Bridge-Chorus-Verse-Bridge (no outro)

Tuning: Half-step up (low to high, F A# D# G# C f

Chorus/Intro:

f  |--------------------------------------------------------|
C  |--------------------------------------------------------|
G# |--7---0---7---5///8---7---0-------3---2---0---------0---|
D# |----------------------------------------------3//7------|
A# |--------------------------------------------------------|
F  |--------------------------------------------------------|

f  |--------------------------------------------------------|
C  |------------------------------8h9p8p6-------------------|
G# |--7---0---7---5///8---7---0-------------5///7-----------|
D# |--------------------------------------------------------|
A# |--------------------------------------------------------|
F  |--------------------------------------------------------|

f  |--------------------------------------------------------|
C  |--------------------------------------------------------|
G# |--7---0---7---5///8---7---0-------3---2---0-----------0-|
D# |----------------------------------------------3///7-----|
A# |--------------------------------------------------------|
F  |--------------------------------------------------------|

f  |---------------------------------------------------------------------------|
C  |------------------------------8--h9p8p6------------------------------------|
G# |--7---0---7---5///8---7---0---------------5----------5---3---2---------///7|
D# |---------------------------------------------------------------------------|
A# |---------------------------------------------------------------------------|
F  |---------------------------------------------------------------------------|

Verse:

f  |------------------------------------------------|
C  |------------------------------------------------|
G# |------------------------------------------------|
D# |---5-------0-------5------/8-------7\\\3---5----|
A# |------------------------------------------------|
F  |------------------------------------------------|

f  |--------------------------------------------------------|
C  |--------------------------------------------------------|
G# |---3---5///7-------0-------5----///10-------9\\\5---7---|
D# |--------------------------------------------------------|
A# |--------------------------------------------------------|
F  |--------------------------------------------------------|

f  |-------------------------------------------------------------------------------------------------|
C  |-------6---8-----------8---6---------------------------------------------------------------------|
G# |---7-----------0---h7----------------7---7\\\5---5-------5---7--h8-------7---5---3---2------/7---|
D# |-------------------------------------------------------------------------------------------------|
A# |-------------------------------------------------------------------------------------------------|
F  |-------------------------------------------------------------------------------------------------|

f  |------------------------------------------------|
C  |------------------------------------------------|
G# |------------------------------------------------|
D# |---5-------0-------5------/8-------7\\\3---5----|
A# |------------------------------------------------|
F  |------------------------------------------------|

f  |-------------------------------------------------------|
C  |-------------------------------------------------------|
G# |---3---5///7-------0-------7----///10------9\\\5---7---|
D# |-------------------------------------------------------|
A# |-------------------------------------------------------|
F  |-------------------------------------------------------|

f  |-------------------6-----------------------8-------8/10\\8-------\\\-------|
C  |-------6---8---------------6---8---9---------------------------------------|
G# |---7-----------------------------------------------------------------------|
D# |---------------------------------------------------------------------------|
A# |---------------------------------------------------------------------------|
F  |---------------------------------------------------------------------------|

Bridge:

f  |---------------------------------------------------------------------------|
C  |---------------------------------------------------------------------------|
G# |---0-2-3-5-7----///12\\\5--\3----///8\\\---0-------------------------------|
D# |---------------------------------------------------------------------------|
A# |---------------------------------------------------------------------------|
F  |---------------------------------------------------------------------------|

f  |---------------------------------------------------------------------------|
C  |---11---13---15---13---11---13-------13-------11---15/16\15---13---11---10-|
G# |---------------------------------------------------------------------------|
D# |---------------------------------------------------------------------------|
A# |---------------------------------------------------------------------------|
F  |---------------------------------------------------------------------------|


************************************

| /   slide up
| \   slide down
| h   hammer-on
| p   pull-off
| ~   vibrato
| +   harmonic
| x   Mute note
| b   Bend
| pb  Pre-bend
| br  Bend release
| pbr Pre-bend release
| brb Bend release bend

************************************
Добавлено: 08.12.2015
Другие материалы по этой песне:
  • Аккорды и текст

Страница создана 08.12.2015
http://primanota.ru/jake-kaufman/pridemoor-keep-in-halls-of-usurper-shovel-knight-ost-chords.htm
Привет, Гость.
Предлагаем пройти революционный курс по гитаре.
Подарок от PrimaNota.Ru, забирай!