PrimaNota.ru - самый крупный в мире бесплатный архив песенных текстов, аккордов, табулатур и нот


Jake Issac - Waiting Here - аккорды и текст, видео

Регистрация Запомнить меня
Войти через:  Facebook Google Twitter Vk Yandex Mail.ru

Jake Issac - Waiting Here - аккорды и текст, видео

Печатать
Просмотров: 105
Waiting Here
Jake Issac
INTRO TAB:
|-----0----0-------0----0------0---0-----0---0---|-----0----0-------0----0------0---0-----0---0----|
|-/12---12---12-10---10---10-9---9---9-9---9---9-|-/12---12---12-10---10---10-5---5---5-5---5---5--|
|------------------------------------------------|-------------------------------------------------|
|------------------------------------------------|-------------------------------------------------|
|------------------------------------------------|-------------------------------------------------|
|------------------------------------------------|-------------------------------------------------|

INTRO CHORDS:
C#m A E

VERSE 1:
C#m      A                E
Here she comes home again
C#m       A               E
where she cry, tear stain
C#m      A                E
Took her hands, coldness
C#m      A                E
Held her close, weeping

VERSE 2:
C#m      A                E
There we stood, moment
C#m      A                E
Winter's home, gaining
C#m        A                E
White hill snow, all around
C#m       A                          E
She don't care, cause she's safe now

CHORUS:
      C#m                 E
These arms were meant for you
          A                  B/G#
And these shoulders meant to carry you
         C#m                 E
When you call my name, come running
          A                B/G#
'til then I'll be waiting, I'll be waiting... here

C#m A E
(This part is done by voices, but here are the tabs anyway)
|--------------------------------------------------|
|--------------------------------------------------|
|--------------------------------------------------|
|----------9--------------11--------------9--------|
|--11-9-11---11-9-11-9-11----11-9-11-9-11---11-9-6-|
|--------------------------------------------------|

VERSE 3:
C#m      A                  E
Moments pass, she pulls away
C#m              A                  E
then the moment stop, my heart faint
C#m          A                  E
She looks up and we're eye to eye
C#m          A                  E
She whispers "love, never leave my side"

BRIDGE:
E          D
Full steps in the storm and
C#m      C
Turning, head back home now
E       D
Back to where we started

E         D
Daybreak, leave me hang low
C#m     C
Shadow, no more light there
E       D
Back to where we started
Добавлено: 11.11.2015
Другие материалы по этой песне:
  • Аккорды и текст

Страница создана 11.11.2015
http://primanota.ru/jake-issac/waiting-here-chords.htm
Привет, Гость.
Предлагаем пройти революционный курс по гитаре.
Подарок от PrimaNota.Ru, забирай!