PrimaNota.ru - самый крупный в мире бесплатный архив песенных текстов, аккордов, табулатур и нот


Jake E Lee - Jones Blues - аккорды и текст, таба, видео

Регистрация Запомнить меня
Войти через:  Facebook Google Twitter Vk Yandex Mail.ru

Jake E Lee - Jones Blues - аккорды и текст, таба, видео

Печатать
Просмотров: 126
Jones Blues
Jake E Lee
		   Received: from post-office.nevada.edu (post-office.nevada.edu [131.216.1.11]) by redrock.nevada.edu (8.6.4/8.6.4) with ESMTP id CAA06043 for  jamesb@redrock.nevada.edu>; Tue, 11 Jan 1994 02:42:36 -0800
Received: from athmail1 (athmail1.causeway.qub.ac.uk [143.117.254.4]) by post-office.nevada.edu (8.6.4/8.6.4) with SMTP id CAA12784 for  jamesb@animal-farm.nevada.edu>; Tue, 11 Jan 1994 02:42:30 -0800
Received: by athmail1
	id AA29820; Tue, 11 Jan 94 10:38:40 GMT
Received: by elm18 (5.57/4.7) id AA00825; Tue, 11 Jan 94 10:38:36 GMT
Message-Id:  9401111038.AA00825@elm18>

Thanks most go to Jason Kat for transcribing this most excellent
song. However there are a few mistakes.....

Corrected Vsn:


JOE'S BLUES
===========
Written by Jake E Lee

Here is the tablature for Jake's acoustic solo on Badlands' 'Voodoo Highway'.
For those of you interested in finger-picking, this will be an excellent
workout.
Notice how the moving bassline can create the illusion of two guitars.
BTW, don't try playing this with a pick unless you can adapt it for
hybrid picking.
Pay attention to syncopation and dynamics ie. know when to play loudly
and when to play softly.

TAB:
====
  h - hammer-on
  p - pull-off
  B - bend full step
  r - release bend half-step
  / - slide
(x) - x note is not picked/plucked

Intro licks omitted (I prefer to play my own ones)

     +   +   +   +     +   +   +   +     +   +   +   +     +   +    +   +
---|---0-------------|---0-------------|---0-------------|-----3----3-3----
---|-----2-0-3-0-2---|-----2-0-3-0-----|-----2-0-3-0-2-0-|-----3----3-3----
-0-h(1)------------0-h(1)------------0-h(1)--------------|-----------------
---|-----2-----------|-----2-----------|-----2-----------|-----2-----------
---|---------2---4---|---------2-------|---------2---4---|----------4---2--
---|-0---------------|-0-----------3---|-0---------------|-0---------------


     +   +   +   +     +   +   +   +     +   +   +   +     +      +   +  +
---|---0-2-0-3-0-2---|---0-2-0-5-3-----|---0-------------|-----------------
-0-/(2)------------0-/(2)--------------|-----2-0-3-0-2-0-|----------9------
---|-----------------|---------------0-h(1)--------------|-----------------
---|---------2---4---|---------2-------|-----2-----------|-----5/(7)-------
---|-0---0-----------|-0---0-------3---|---------2---4---|-----------------
---|-----------------|-----------------|-0---------------|-0----------9--8-


     +   +   +   +     +   +   +   +         +  +   +   +     +   +  + +
---|-----------------|-------0-------------|------0---0---0-|--------------
---|-----4---4-4-----|---3-------3---------|----------------|--------------
---|-----4---4-4---0-/(4)----------4p(2)p(0)---/4---3---2---|-1---2-2------
---|-----4-------4---|-----2---------------|----------------|--------------
---|-2---------------|-0-------------------|---/5---4---3---|-2---2-2------
---|---------2-------|---------0-----------|-0--------------|---0------3///-
                                                                        ^
                                                                   long slide


                                               *-See end-*
     +   +   +   +     +    +   +    +         +   +   +   +     +   +   +
-||------0---0-------|--------0-------------||-----3---3-0-----|-3---3-0---
-||:-----0---0-------|----3----------------:||-----3---3-2-----|-3---3-2---
-||------------------|-/4-------2p(0)-------||-----------------|-----------
-||------------------|---------------2-p(0)-||-----------------|-----------
-||:---------0---2---|---------------------:||-0---2---0-------|-0---2---0-
-||--0---3-----------|--0---0---0----0------||-------------2-3-|-----------
                                          ^
                                        repeat

    +             +   +   +   +    +   +   +    +       +   +   +   +
----------------|-----0---0-----|--------0------------|-------0------------
----------------|-----0---0-----|----3----------------|---------0----------
----------------|---------------|-/4-------2p(0)------|---2-------2--------
--2-------------|---------------|---------------2-p(0)|-----1-------2p(0)--
----2-p(0)------|---------0---2-|---------------------|-2---------------2/-
------------3B--|-0---3---------|--0---0---0----0-----|--------------------


    +    +     +    +    +    +   +   +     +    +   +   +     +
--|--------------------|--------0---0---0-|--------0---0---0-|-------------
--|------2--------3----|------------------|-----/3---2---1---|-0-----------
--|----2-----0---------|-----/4---3---2---|-1---/4---3---2---|-1-----------
--|--------------------|------------------|------------------|-------------
--/(4)-----------------|-----/5---4---3---|-2----------------|-------------
--|------------3B---3B-|-0----------------|------------------|-------------

   +      +       +        +    +       + +
-----4-------5-------6---|-7---/12---10-----|------------------------------
-------------------------|------------------|------------------------------
--/4---4/(5)---5/(6)---6-|-----/12---11-----|------------------------------
-------------------------|------------------|------------------------------
-------------------------|------------------|------------------------------
-------------------------|----------------0-|------------------------------


* NB This bar-and-a-half phrase is quite difficult to play in terms of left
hand fingering. Here is the fingering I found most helpful (with practice).
(You may find the size of your hand or the shape of your guitar neck make
this tricky so feel free to find another way of doing it)

 ===========     +   +   +   +     +   +   +
 | | | | | |   |-----3---3-0-----|-3---3-0---       T = Thumb
 T 1 | | 2 |   |-----3---3-2-----|-3---3-2---       1 = 1st finger
 3 | | | 4-4   |-----------------|-----------       2 = 2nd finger
 | | | | | |   |-----------------|-----------       3 = 3rd finger
               |-0---2---0-------|-0---2---0-       4 = 4th finger
               |-------------2-3-|-----------
       LH fing-      4   4         4   4
                     4   4 2       4   4 2
                     1                 1
                             T 3



Transcribed WITHOUT referance to ANY pulished material.

Jason Kat

Paul Hutchinson.     
Добавлено: 26.08.2013
Вам также может быть интересно:
Другие материалы по этой песне:
  • Аккорды и текст

Страница создана 10.05.2012
http://primanota.ru/jake-e-lee/jones-blues-chords.htm
Привет, Гость.
Предлагаем пройти революционный курс по гитаре.
Подарок от PrimaNota.Ru, забирай!