PrimaNota.ru - самый крупный в мире бесплатный архив песенных текстов, аккордов, табулатур и нот


Jake Bugg - Saffron - таба, видео

Регистрация Запомнить меня
Войти через:  Facebook Google Twitter Vk Yandex Mail.ru

Jake Bugg - Saffron - таба, видео

Печатать
Просмотров: 144
From this video http://www.youtube.com/watch?v=cDINJAB0KBY

Capo on 4th fret

Picking patterns for each chord

C:  ----------------   Fmaj7: -------------   G:-------------|
    -------1-------1          ------1------     ------0------|
    ---0-------0----          --2----------     --0----------|
    -----2-------2--          ----3-------      ----0--------|
    -3-------------           -3----------      -------------|
    ---------3------          -------------     -3-----------|

Fill ---------     Am ---------------------------------------| 
     ---------        --------1------1--------1------1-------|       
     ---------        ---2-------2-------2-------2-----------| use your thumb 
     -2-0-----        -----2-------2-------2-------2---------|     for the
     -----2-0-        -0-------------------------------------|    last bass
     ---------        ----------3------2-------1-------------| <--- notes
     hold the C shape for this

E5   ---------      F ---------|
     -------0-        -------1-|
     ---0-----        ---2-----|
     -----0---        -----3---|
     -2-------        ---------|
     ---------        -1-------|


    C
 I don't mean to waste your time
    Fmaj7
 I hope you're doing fine
    G
 Oh come on, Saffron

    C
 And I hope you like this song
    Fmaj7
 What have I done wrong
    G
 Oh, I'm gone, Saffron

    C,  Fill

    Am
 Something different about that girl
    Am
 So im reeling out of this world
    Am
 I want her to be mine
    Am                       C
 And I hope your doing fine,Saffron
    C
 Saffron


    C
 Her beauty is beyond belief
    Fmaj7
 And I know I'm beneath
    G            C
 Your league, Saffron

     C,  Fill

     Am
 Something different about that girl
     Am
 So im reeling  out of this world
     Am
 I want her to be mine
     Am                        C
 And I hope your doing fine, Saffron,
     C
 Saffron

    C,E5,F,C,E5,F,G

     C
 I don't mean to waste your time
     C              Fmaj7
 I hope your doing fine
     G           C
 Now I'm gone, Saffron
Добавлено: 23.10.2013
Другие материалы по этой песне:
  • Аккорды и текст

Страница создана 06.08.2013
http://primanota.ru/jake-bugg/saffron-chords.htm
Привет, Гость.
Предлагаем пройти революционный курс по гитаре.
Подарок от PrimaNota.Ru, забирай!